Cifra Club

Do This For Me Now

Angels & Airwaves

Cifrado: Principal (guitarra y guitarra eléctrica)
Acompaña nuestras novedades de Cifra Club en español.
¡Sigue nuestro perfil en Instagram!
tono: C (con acordes en la forma de A) Capotraste en 3ª casa
                             Do It For Me Now- Angels & Airwaves
Tabbed by:manning677
Email:M*

Tuning: EADGBE
 Capo @ 3rd

              (muted)                                Acoustic Chords   
e|-------------------------|-----------------|-----------------------------------------------|
B|-------------------------|-----------------|-2----2----2---2-------------------------------|
G|-(6)-------4--------6----|------4----7---6-|-2----2----2---2-------------------------------|
D|--7--------7--------7--7-|-7----7----7---7-|-2----2----2---2-------------------------------|
A|--0--------0--------0--0-|-0----0----0---0-|-----------------------------------------------|
E|-------------------------|-----------------|------4----2----4------------------------------|
    chord and lick
e|----------|-121210-109-9----9-----------------------------------------------------------------|
B|----------|------------12-12--10----10-10----10101010-----------------------------------------|
G|----------|----------------------9-9------7-7--------997766-----------------------------------|
D|--9-------|-------------------------------------------------9-9-7-----7-7----7777-------------|
A|--7-------|-------------------------------------------------------5-5-----44------------------|
E|--0-------|-----------------------------------------------------------------------------------|
Compositor não encontrado.
Colaboración y revisión:
  • Jean Sapia
32 vistas
    • ½ Tono
    • A
    • Bb
    • B
    • C
    • Db
    • D
    • Eb
    • E
    • F
    • F#
    • G
    • Ab
  • Agregar a la lista

    0 comentarios

    Ver todos los comentarios

    ¿Lograste tocar?

    0 Tocaron 0 Aún no

    ¡Graba un video tocando Do This For Me Now y envíanoslo!

    00:00 / 00:00
    Outros vídeos desta música
    Repetir Calidad Automático
    Outros vídeos desta música
    00:00 / 00:00
    Automático
    OK