Cifra Club

The Flight Of Apollo

Angels & Airwaves

Cifrado: Principal (guitarra y guitarra eléctrica)
tono: D
(guitarra entra em 1:30)
E|------------------------------------------------|
B|------------------------------------------------|
G|------------------------------------------------|
D|--------7--5----7--5---11--7--5-7-5-------------|
A|--------7--5----7--5---11--7--5-7-5-------------|
E|--------5--3----5--3---9---5--3-5-3-------------|

(tocar essa parte em 1:42)
E|---------------------------------------------------|
B|---------------------------------------------------|
G|----11-11--11--11--11------11----------------------|
D|----11-11--11--11--11------------------9--7--------|
A|-----9--9---9---9---9-------9-----------7--5--------|
E|---------------------------------------------------|

(pré refrão)
(Palm muted)
E|-----------------------------------------------|
B|-----------------------------------------------|
G|-----------------------------------------------|
D|----6666-6666---7777-7777--9999-9999------------|
A|----4444-4444---5555-5555--7777-7777-----------|
E|-----------------------------------------------|

(refrão)
E|--0---0-------------------------|
B|--11--9-------------------------|
G|--------------------------------|
D|---------------------------------|
A|--------------------------------|
E|--------------------------------|

E|--0---0----0-------------------|
B|--11--9----12------------------|
G|-------------------------------|
D|--------------------------------|
A|-------------------------------|
E|-------------------------------|

(final)
E|--------------------------------------------------------|
B|--------------------------------------------------------|
G|--------------------------------------------------------|
D|---5------7-7--7-7--7-----5-5-5-5------------------------|
A|--5-slide-7-7--7-7 --7-slide-5-5-5-5--------------------|  (repetir várias vezes)
E|--3-----5-5--5-5---5------3-3-3-3-----------------------|

(intro para Young London)

E|----------------------------------|
B|----------------------------------|
G|----------------------------------|
D|-----7-7----7--7-------------------|
A|----7-7----7--7-------------------|
E|----5-5----5--5-------------------|
Compositor não encontrado.
Colaboración y revisión:
  • Cristian Schultz
27 vistas
    • ½ Tono
    • A
    • Bb
    • B
    • C
    • Db
    • D
    • Eb
    • E
    • F
    • F#
    • G
    • Ab
  • Agregar a la lista

    0 comentarios

    Ver todos los comentarios

    ¿Lograste tocar?

    0 Tocaron 0 Aún no

    ¡Graba un video tocando The Flight Of Apollo y envíanoslo!

    00:00 / 00:00
    Outros vídeos desta música
    Repetir Calidad Automático
    Outros vídeos desta música
    00:00 / 00:00
    Automático
    OK