Cifra Club

Prolog

Anglagard

Cifrado: Principal (guitarra y guitarra eléctrica)
Acompaña nuestras novedades de Cifra Club en español.
¡Sigue nuestro perfil en Instagram!
tono: C
19.*

Album: Epilog
Year: 1994
Tunning: Standard

My transcribe of the first piece in this magnificent Progressive Rock album.
The tune is played mostly by a mellotron, though an acoustic guitar is played.
Enjoy one of the most touching tunes in the world.

Tabbed by: Meged Shoham, Israel.
Email: * (I'm open for suggestions)

http://*

e|--------------------------------------6-5----------------------------------|
B|--------5-6--5---5----------------5-6------8-6---6-5-----5-----------------|
G|-7-6--7--------7---6-------7-6--7--------------7-----7-6---7---------------|
D|---------------------7---------------------------------------7-5-8-5-------|
A|------------------------5--------------------------------------------------|
E|---------------------------------------------------------------------------|

e|-----------------------------------------6-5-------------------------------|
B|-----------5-6--5---5----------------5-6------8-6---6-5-----5--------------|
G|----7-6--7--------7---6-------7-6--7--------------7-----7-6---7------------|
D|------------------------7---------------------------------------7-5-8-5----|
A|-5-------------------------5-----------------------------------------------|
E|---------------------------------------------------------------------------|

e|-10-9----------------------10-9--------------------------------------------|
B|-------11----10------------------11----10---------------------10-10--------|
G|----------12------------------------12-------------------9-10-------12-9-12|
D|-----------------12-12-11------------------12-12-11---12-------------------|
A|---------------------------------------------------------------------------|
E|---------------------------------------------------------------------------|
                            
e|-------------------10-9-------------10-9-------------12-11--------------12-|
B|------------------------11-10------------11-10-------------13-12-----------|
G|-10-------9----------------7--8-------------7--8--------------9--10--------|
D|----12-11---12------------------10---------------10-----------------12-----|
A|---------------------------------------------------------------------------|
E|---------------------------------------------------------------------------|

e|-11---------------10-9---------------------10-9----------------------------|
B|----13-12----9----------11----10-----------------11----10------------------|
G|-------9--10---------------12-----------------------12---------------------|
D|----------------------------------12-12-11----------------12-12-11---------|
A|---------------------------------------------------------------------------|
E|---------------------------------------------------------------------------|

e|---------------------------------------------------------------------------|
B|---------10-10-------------------------------------------------------------|
G|----9-10-------12-9-12--10-------9-----------------------------------------|
D|-12------------------------12-11---12--------------------------------------|
A|---------------------------------------------------------------------------|
E|---------------------------------------------------------------------------|


===============================================================================
Compositor não encontrado.
16 vistas
    • ½ Tono
    • A
    • Bb
    • B
    • C
    • Db
    • D
    • Eb
    • E
    • F
    • F#
    • G
    • Ab
  • Agregar a la lista

    0 comentarios

    Ver todos los comentarios
    00:00 / 00:00
    Outros vídeos desta música
    Repetir Calidad Automático
    Outros vídeos desta música
    00:00 / 00:00
    Automático
    OK