Cifra Club

Heroes Of Sand

Angra

Cifrado: Principal (guitarra y guitarra eléctrica)
Selo Cifra Club: esta cifra foi revisada para atender aos critérios oficiais da nossa Equipe de Qualidade.
tono: F# (con acordes en la forma de G) Afinación: Eb Ab Db Gb Bb Eb
[Intro]

E|------------------------------(17)------------------------------------------|
B|--------8---(12)-----------(15)--------------(12)-----------------(15)------|
G|----------------------11----------------7-------------------11--------------|
D|------9--(12)-----------(14)--------------(12)---(12)----------(14)---(14)--|
A|----7---------------12----------------9-------------------12----------------|
E|--0--------------10-----------------7------------------10--------------10---|

E|------------------------------(17)-----------------------------------(15)---|
B|--------8---(12)-----------(15)--------------(12)-----------------(13)------|
G|----------------------11----------------7-------------------9---------------|
D|------9--(12)-----------(14)--------------(12)---(12)----------(12)---------|
A|----7---------------12----------------9------------------10-----------------|
E|--0--------------10-----------------7------------------8--------------------|

E|---------(12)-----(12)-----------(12)-------(12)-----(12)-------------------|
B|---------(10)-----(10)-------(10)-----------(10)-----(10)----------(10)-----|
G|------5----------------5------------------5---------------5-----------------|
D|---------(9)------(9)-----------------------(9)------(9)--------(9)---------|
A|----7----------7------------7-----------7----------7--------7---------------|
E|--5----------5------------5-----------5----------5------------5-------------|

E|------------------------------(17)------------------------------------------|
B|--------8---(12)-----------(15)--------------(12)-----------------(15)------|
G|----------------------11----------------7-------------------11--------------|
D|------9--(12)-----------(14)--------------(12)---(12)----------(14)---(14)--|
A|----7---------------12----------------9-------------------12----------------|
E|--0--------------10-----------------7------------------10--------------10---|

TUDO ISSO ACIMA EH TOCADO 2 VEZES !!!!! DEPOIS VEM ESSE FINAL
TUDO ISSO ACIMA EH TOCADO 2 VEZES !!!!! DEPOIS VEM ESSE FINAL

E|--------(12)----(12)--------------------------------------------------------|
B|--------(10)----(10)---------(12)----(13)--------(13)-------9----(13)-------|
G|------5--------------5------------9-----------------------------------------|
D|--------(9)-----(9)----------(12)---(12)----(12)-------------(12)---(12)----|
A|----7---------7----------7--------10-------10------------10-----------------|
E|--5---------5----------5---7------8------8------------8---------------------|

E|------------------------------(17)-----------------------------------(15)---|
B|--------8---(12)-----------(15)--------------(12)-----------------(13)------|
G|----------------------11----------------7-------------------9---------------|
D|------9--(12)-----------(14)--------------(12)---(12)----------(12)---------|
A|----7---------------12----------------9------------------10-----------------|
E|--0--------------10-----------------7------------------8--------------------|

E|--------(12)-----(12)-------------------------------------------------------|
B|--------(10)-----(10)----------(12)----------(13)---------------------------|
G|------5---------------5-------------------9---------------------------------|
D|--------(9)------(9)-----------(12)----------(12)---------------------------|
A|----7----------7----------7---------------10--------------------------------|
E|--5----------5----------5---7-------------8---------------------------------|

[Intro]
 
Em      D
Sealing light
Bm             D
Nothing to see
Em      D       Bm
Like a miracle life
C               Am  
Starts with the pain
            Em          D Bm D
Forever this will be

Em       D
Close my eyes
Bm                  D
Thunders won't cease
Em      D            Bm 
Crawling down to the edge
C                Am     
I break down and weep
            Em        D  Bm C
Tears on a river deep

Am C      Em        D  Bm  C
Oh! Back to the sea
Am  C
Oh ooo!

Bm       G
Shout loud
A       D
Moving ahead
Bm        G          A
Ride the horses of justice
D         G        Em
Virtues of men, yawns!

Bm        G
Down and out 
A           D
Losing my head
Bm         G            A       
Like a dream you're returning
D               G       Em
Back from the dead-awake!
C            A7         E
Shadows will fade someday

Am                 F
All the heroes go down
           C            G
Shed their blood on the land
Am           F
Dreaming somehow
      C             G           
The divine will now stand
Am         F
Heroes go down
           C               G
With their hearts on their hands
F                             Am                        E       
Building (is building) their castles (build up) on the sand

[Solo 1]
                                   
E|-------------|-----------------|------------|---------------------------|
B|-------------|-----------------|------------|---------------------------|
G|--14~~-------|------12/14/12~--|--9/10/9~---|-7--9--10--12---10--9--7/5-|
D|-------------|-----------------|------------|---------------------------|
A|-------------|-----------------|------------|---------------------------|
E|-------------|-----------------|------------|---------------------------|
 
E|---------------------------|
B|---------------------------|
G|----4h~----4---------------|
D|--------------7----5-7~~---|
A|-----------------7---------|
E|---------------------------|
                                              
E|----17------15/17/15~----17----14/15/14~|----17------19-20-19~---17-19-20b----|
B|----------------------------------------|-------------------------------------|
G|-14----14-13----------14--14-13---------| 14-----14-13-------------------------|
D|----------------------------------------|-------------------------------------|
A|----------------------------------------|-------------------------------------|
E|----------------------------------------|-------------------------------------|

E|--20-19-17---------------|-------------------------------------|
B|-----------20b20b--------|-------------------------------------|
G|-------------------------|---9~-9--7---7-----------------------|
D|-------------------------|-----------9-------------------------|
A|-------------------------|-------------------------------------|
E|-------------------------|-------------------------------------|

E|-12b--12b~~~----11b--11b~~~------12h13p12------------------------------------------|
B|-15b--15b~~~----14b--14b~~~--------------15-13-12----------------------------------|
G|-------------------------------------------------14-14-13h14p13--------------------|
D|---------------------------------------------------------------15-14-12------------|
A|-----------------------------------------------------------------------15-14-12-14-|
E|------------------------------------------------------------------------------------|

F               C
Haunted by the heavy clouds
G          D         A 
Thunder scaring away
Bb              F
Howling like a mountain wolf
C            G               D
Warriors are leading the way

Am                 F
All the heroes go down
           C            G
Shed their blood on the land
Am           F
Dreaming somehow
      C             G           
The divine will now stand
Bm         G
Heroes go down
           D              A
With their hearts on their hands
G                             Bm                        F#  
Building (is building) their castles (build up) on the sand

        G   Bm        A         D                  G   Em           D         A 
on the saaaand . . . . heroe go down . . . on the saaaand . . . heroes of the sand

(G Bm A D G Em F# G Bm A D G Em D A G Bm A D G Em F#)... 

ou com dedilhado

[Solo  2]
                                                                    
E|------------------------------------------------------9-10-9-------|
B|------------------------------------------------10-12--------12-10-|
G|----------------------------------------9-11-12--------------------|
D|------------------9-11-12-11-9----11-12----------------------------|
A|----------9-10-12--------------12----------------------------------|
E|--9-10-12----------------------------------------------------------|
                                               
E|-------------------------|--------------------|
B|--10b-----10b10-7---7-10-|--------------------|
G|------------------9------|--9~-9---7---7------|
D|-------------------------|-----------9--------|
A|-------------------------|--------------------|
E|-------------------------|--------------------|
                                                                           
E|-----------------------17-14-------------|--14-------17-------14b---------|
B|--14-15-14----14-15----------15-17-14-15-|-----15-------15----------17-15-|
G|-----------16-------14-------------------|--------14-------14-------------|
D|-----------------------------------------|--------------------------------|
A|-----------------------------------------|--------------------------------|
E|-----------------------------------------|--------------------------------|

                                                                         
E|--19-17-19-17/14----14-17-------------------|----------------------------|
B|-----------------17-------19-15-17----15----|--15-14----14---------------|
G|-----------------------------------16----16-|--------16----16-14/11------|
D|--------------------------------------------|----------------------------|
A|--------------------------------------------|----------------------------|
E|--------------------------------------------|----------------------------|
                                                        
E|--9-10-9-7----------------------|----------------------|
B|-----------10-7---7-------------|----------------------|
G|----------------9---9~7---9---7-|----------------------|
D|------------------------9---9---|--9-7-----------------|
A|--------------------------------|------9-7-------------|
E|--------------------------------|----------5/7/5-----7-|
                                                                        
E|-----------------------------------------------------------------------|
B|--------------------------------------------------------------12-14-15-|
G|-----------------------------------11----------------11-12-14----------|
D|------------------9-11-12-11-12-14----14-12-11-12-14-------------------|
A|----------9-10-12------------------------------------------------------|
E|--9-10-12--------------------------------------------------------------|
                                                                   
E|--17--14------------------14-|--14-10/9-10h9----------------------|
B|---------17b-17-15-17--------|---------------10----10-12----10----|
G|-----------------------------|------------------11-------11----10-|
D|-----------------------------|------------------------------------|
A|-----------------------------|------------------------------------|
E|-----------------------------|------------------------------------|
                                                                  
E|---------------------|--------------7-9-|--10-9-7----7-9-14------|
B|---------------------|--10b-------------|---------10-------------|
G|--9-7---9---7--------|------------------|------------------------|
D|------9---9---7------|------------------|------------------------|
A|---------------------|------------------|------------------------|
E|---------------------|------------------|------------------------|
                                       
E|--19-14-------------------------------|
B|--------17-14----14-17-14-------------|
G|--------------16----------16-15-------|
D|--------------------------------17-16-|
A|--------------------------------------|
E|--------------------------------------|
                                                                                
E|--18-14----------------------------------------15-17-19-|--17b-----19--17--14--|
B|--------17-14-------------------------15-17-19----------|----------------------|
G|--------------15-------------14-16-18-------------------|----------------------|
D|-----------------17-16-17-16----------------------------|----------------------|
A|--------------------------------------------------------|----------------------|
E|--------------------------------------------------------|----------------------|
                                                  
E|--21r-----21--------|--22----21----19------------|
B|-----------------19-|-----19----19----19-22b-----|
G|--------------------|----------------------------|
D|--------------------|----------------------------|
A|--------------------|----------------------------|
E|--------------------|----------------------------|
                                                                      
E|--21----19/17-19h17-------------------|------------------------------|
B|-----22-------------22/19h17-19/17-15-|--17b---17-15-17-----15-17-15-|
G|--------------------------------------|------------------------------|
D|--------------------------------------|------------------------------|
A|--------------------------------------|------------------------------|
E|--------------------------------------|------------------------------|
                             
E|----------------------------|
B|-----14-15------------------|
G|--16-------16-14-16-11------|
D|----------------------------|
A|----------------------------|
E|----------------------------|
                                                                                
E|--14h10----10-------12----17h14----14----------------------------------------10-|
B|--------14----14-15----14-------17----15-14-------12-15-------------------12----|
G|--------------------------------------------16-14-------14/13----13-11-13-------|
D|--------------------------------------------------------------16----------------|
A|--------------------------------------------------------------------------------|
E|--------------------------------------------------------------------------------|
                                                                           
E|--14-10-12-14-17-14-12-10-17-14-17-14-12-10-17-14-12-10-17-14-17-14-12-10/|
B|--------------------------------------------------------------------------|
G|--------------------------------------------------------------------------|
D|--------------------------------------------------------------------------|
A|--------------------------------------------------------------------------|
E|--------------------------------------------------------------------------|
                                                       
E|--17-------14----14/12-12-|--12-7-7-9--10h9-7---------|
B|--------------17----------|-------------------10b-----|
G|--------------------------|---------------------------|
D|--------------------------|---------------------------|
A|--------------------------|---------------------------|
E|--------------------------|---------------------------|
                                                     
E|--9-10-9-7--------------------|---------------------|
B|-----------10-7---------------|---------------------|
G|----------------9-9b9-7---9---|--7/4----------------|
D|------------------------9---9-|------7-4/2/4-7------|
A|------------------------------|---------------------|
E|------------------------------|---------------------|
Otros videos de esta canción
    204.821 exhibiciones
    • Simplificar cifrado
      • ½ Tono
      • A
      • Bb
      • B
      • C
      • Db
      • D
      • Eb
      • E
      • F
      • F#
      • G
      • Ab
    • Agregar a la lista

    Afinación de cifrado

    Afinador online

      OK