Cifra Club

Late Redemption

Angra

Cifrado: Versão 3 (guitarra y guitarra eléctrica)
Selo Cifra Club: esta cifra foi revisada para atender aos critérios oficiais da nossa Equipe de Qualidade.
tono: Bb
E||--16h15h13-------------------------------------------------------------------------13-15-16-15b|
B||-----------16h15h13h12h13h15h13h12----------------------------------------13-15-16-------------|
G||-----------------------------------13h12h10----------------------10-12-13----------------------|
D||--------------------------------------------13h12h10h9--10-12-13-------------------------------|
A||-----------------------------------------------------------------------------------------------|
E||-----------------------------------------------------------------------------------------------|

                              
-----15-13-15----20b(22)b(24)---20----|
--------------------------------------|
--------------------------------------|
--------------------------------------|
--------------------------------------|
--------------------------------------|

                                                                                           
--20-19-20-16-20-19-16-15-19-16-15-13-16-15-13-11-15-13-11-10-13-11-10-8-11-10-8-7-10-8-7-|
------------------------------------------------------------------------------------------|
------------------------------------------------------------------------------------------|
------------------------------------------------------------------------------------------|
------------------------------------------------------------------------------------------|
------------------------------------------------------------------------------------------|

                                                
-------------------17--13h12h10----------19----|
--15b--15-13-15-----------------13h12h10-------|
-----------------------------------------------|
-----------------------------------------------|
-----------------------------------------------|
-----------------------------------------------|

                                                                                 
----13h12h10----------20-----19h17h15h17h19h20h19h17h15h19h20h22h20h19h17h20h22-|
-------------13h12h10-----------------------------------------------------------|
--------------------------------------------------------------------------------|
--------------------------------------------------------------------------------|
--------------------------------------------------------------------------------|
--------------------------------------------------------------------------------|

                                                                               
--22b(24)---22b(25)---22-20-19-20-19-20-19----19----------------|--------------------||
-------------------------------------------22----22-20-18-20-22-|--22b---------------||
----------------------------------------------------------------|--------------------||
----------------------------------------------------------------|--------------------||
----------------------------------------------------------------|--------------------||
----------------------------------------------------------------|--------------------||
Otros videos de esta canción
    12.456 exhibiciones
      • ½ Tono
      • A
      • Bb
      • B
      • C
      • Db
      • D
      • Eb
      • E
      • F
      • F#
      • G
      • Ab
    • Agregar a la lista

    Afinación de cifrado

    Afinador online

      OK