Cifra Club

Aura

A.N.I.M.A.L

Cifrado: Principal (guitarra y guitarra eléctrica)
tono: Dm
E||------5-------|--5-----|---5------|---------------------------------||
B||----------5---|-----5--|------5---|---8----6-----5h6h5--------------||
G||--------------|--------|----------|---------------------------------||
D||--------------|--------|----------|---------------------------------||
A||--------------|--------|----------|---------------------------------||
E||--------------|--------|----------|---------------------------------||

Riff2

E||------------------|-------------------|---------------------------||
B||------------------|-------------------|---------------------------||
G||---4--4--2v-------|--0----------------|---------------------------||
D||------------------|------3--2v--------|----2h3h2------------------||
A||------------------|-------------------|---------------------------||
E||------------------|-------------------|---------------------------||

Riff3

E||----------------------------------------------------------------------------------||
B||-----0-------0------0------0-----0-------0---------3/5--3--1----------------------||
G||--------2-------2-----2------2------2--------2------------------------------------||
D||----------------------------------------------------------------------------------||
A||----------------------------------------------------------------------------------||
E||----------------------------------------------------------------------------------||


Intro: Riff1 sobre (Am C F Bb) 4 veces

Riff2

Am     C  F   Bb     Am   C F Bb
Sueño        de cristal
Am     C   F  Eb      Am    C F Bb
puro           y esencial,

Riff3

Siento su reflejo
que anda en mi pecho
dando luz
siempre fiel regreso
               Am   F    Bb
cada vez que me marcho.

Estribillo:
 A5      C5    F5        Bb5    A5    C5
An-------gel         de mi roman----ce
F5     Bb5        A5       C5
  leva en sus manos hoy
F5     Bb5    A5   F5            Bb5
  las llaves para liverar mi amor.


Saboreo su recuerdo
que alimenta este deseo
de pasiones,
fanteseo que te tengo
tan alto como el sol.

Busco verte
en una estrella cada noche
mirando me titilan
tus pupilas en el cielo
sobre mi llevo el aura
de nuestro respeto eterno,
tan feliz, lo protejo.

Estribillo:

Angel de mi romance
lleva en sus manos hoy
la flor de mi sentir
mi vivir
E  sentir.
Composición de Albert Gimenez
5 vistas
    • ½ Tono
    • Am
    • Bbm
    • Bm
    • Cm
    • C#m
    • Dm
    • Ebm
    • Em
    • Fm
    • F#m
    • Gm
    • G#m
  • Agregar a la lista

    0 comentarios

    Ver todos los comentarios

    ¿Lograste tocar?

    0 Tocaron 0 Aún no

    ¡Graba un video tocando Aura y envíanoslo!

    00:00 / 00:00
    Otros videos de esta canción
    Repetir Calidad Automático
    Otros videos de esta canción
    00:00 / 00:00
    Automático
    OK