Cifra Club

Bang

Anitta

Cifrado: Principal (guitarra y guitarra eléctrica)
tono: G
[Refrão]

 G
Vem na maldade, com vontade
                  F#
Chega encosta em mim

Hoje eu quero e você sabe
                Bm7
Que eu gosto assim
                   E7
Uh, uh, uh, uh, uh
                   Bm
Uh, uh, uh, uh, uh
                   E7
Uh, uh, uh, uh, uh

Uh, uh, uh, uh, uh

[Riff Refrão]

Parte 1 De 4
E|-----------------------------------------------------|
B|--------------------------7b-------------------------|
G|--------------------7-9p7----------------------------|
D|-9-x-x--9-x-x---9-9----------------------------------|
A|-----------------------------------------------------|
E|-----------------------------------------------------|

Parte 2 De 4
E|-----------------------------------------------------|
B|--------------------------7b-------------------------|
G|--------------------7--------------------------------|
D|-9-x-x--9-x-x---9-9---9------------------------------|
A|-----------------------------------------------------|
E|-----------------------------------------------------|

Parte 3 De 4
E|-----------------------------------------------------|
B|----------------------7b-----------------------------|
G|----------------7-9p7--------------------------------|
D|-9-x-x--9-x-9-9--------------------------------------|
A|-----------------------------------------------------|
E|-----------------------------------------------------|

Parte 4 De 4
E|-----------------------------------------------------|
B|-----------------------------------------------------|
G|--------7--------------------------------------------|
D|-9-x-x----x-x--9-------------------------------------|
A|-----------------------------------------------------|
E|-----------------------------------------------------|

Variação Parte 4 De 4
E|-----------------------------------------------------|
B|-----------------------------------------------------|
G|--------7------------9-------------------------------|
D|-9-x-x----x-x--9---9---(9)---------------------------|
A|-----------------------------------------------------|
E|-----------------------------------------------------|

( Bm7  E7(9)  Bm7  E7(9) )

[Primeira Parte]

 Bm7
Bang (bang) dei meu
                 Em7
Tiro certo em você (bang)
                         Bm7
Deixa que eu faço acontecer (vem)

Tem que ser assim
         Em7
Pra me acompanhar

Pra chegar
       Bm7
Então vem (vem), não sou de
                 Em7
Fazer muita pressão (não)
                          Bm7
Mas não vou ficar na tua mão (e)
                         Em7
Se você quiser não pode vacilar

Demorar

[Segunda Parte]

Bm7
E pra te dominar
E7
  Virar tua cabeça
G
  Eu vou continuar
     Em7     F#
Te pro____vocando
Bm7
E pra escandalizar
E7
  Dar a volta por cima
G                        Em7
  Não vou parar, até te ver
   F#
Pirando

[Refrão]

 G
Vem na maldade, com vontade
                  F#
Chega encosta em mim

Hoje eu quero e você sabe
                Bm7
Que eu gosto assim
                   E7
Uh, uh, uh, uh, uh
                   Bm
Uh, uh, uh, uh, uh
                   E7
Uh, uh, uh, uh, uh

Uh, uh, uh, uh, uh

( Bm7  E7(9)  Bm7  E7(9) )

[Primeira Parte]

 Bm7
Bang (bang) dei meu
                 Em7
Tiro certo em você (bang)
                         Bm7
Deixa que eu faço acontecer (vem)

Tem que ser assim
         Em7
Pra me acompanhar

Pra chegar
       Bm7
Então vem (vem), não sou de
                 Em7
Fazer muita pressão (não)
                          Bm7
Mas não vou ficar na tua mão (e)
                         Em7
Se você quiser não pode vacilar

Demorar

Repete a Segunda Parte

Bm7
E pra te dominar
E7
  Virar tua cabeça
G
  Eu vou continuar
     Em7     F#
Te pro____vocando
Bm7
E pra escandalizar
E7
  Dar a volta por cima
G                        Em7
  Não vou parar, até te ver
   F#
Pirando

[Refrão]

 G
Vem na maldade, com vontade
                  F#
Chega encosta em mim

Hoje eu quero e você sabe
                Bm7
Que eu gosto assim
                   E7
Uh, uh, uh, uh, uh
                   Bm
Uh, uh, uh, uh, uh
                   E7
Uh, uh, uh, uh, uh

Uh, uh, uh, uh, uh

[Segunda Parte]

Bm7
E pra te dominar
E7
  Virar tua cabeça
G
  Eu vou continuar
     Em7     F#
Te pro____vocando
Bm7
E pra escandalizar
E7
  Dar a volta por cima
G                        Em7
  Não vou parar, até te ver
   F#
Pirando

[Refrão Final]

 G
Vem na maldade, com vontade
                  F#
Chega encosta em mim

Hoje eu quero e você sabe
                Bm7
Que eu gosto assim
                   E7
Uh, uh, uh, uh, uh
                   Bm
Uh, uh, uh, uh, uh
                   E7
Uh, uh, uh, uh, uh

Uh, uh, uh, uh, uh

( Bm7  E7(9)  Bm7  E7(9) )

Bm7                  E7(9)
  Uh, uh, uh, uh, uh
                   Bm7
Uh, uh, uh, uh, uh
                  E7(9)
Uh, uh, uh, uh, uh
                   Bm7
Uh, uh, uh, uh, uh
00:00 / 00:00
Otros videos de esta canción
Repetir
Otros videos de esta canción
Composición de Anitta / Jefferson Junior / Umberto Tavares
Colaboración y revisión:
2.019 vistas
  • Simplificar cifrado
    • ½ Tono
    • A
    • Bb
    • B
    • C
    • Db
    • D
    • Eb
    • E
    • F
    • F#
    • G
    • Ab
  • Agregar a la lista

    0 comentarios

    Ver todos los comentarios

    ¿Lograste tocar?

    17 Tocaron 7 Aún no

    ¡Graba un video tocando Bang y envíanoslo!

    00:00 / 00:00
    Capítulos
    • Tocando a música
    • Dicas Iniciais / Equipamentos
    • Acordes do Refrão
    • Tocando o Refrão
    • Ritmo do Refrão
    • Tocando o Riff Refrão
    • Riff Refrão - Parte 1 de 4
    • Riff Refrão - Parte 2 de 4
    • Riff Refrão - Parte 3 de 4
    • Riff Refrão - Parte 4 de 4
    • Riff Refrão - Parte 4 de 4 (variação)
    • Acordes da Primeira Parte
    • Tocanda a Primeira Parte
    • Ritmo da Primeira Parte
    • Acordes da Segunda Parte
    • Tocando a Segunda Parte
    • Ritmo da Segunda Parte
    • Encerramento
    • Ficha Técnica
    OK