Cifra Club

Veneno

Anitta

Tablatura: Principal (guitarra)
Tom: Em
[Intro] Em  D  C  B7

[Riff]

   Em   D    C    B7
E|-15---14---12---11------------------------|
B|-17---15---13---10------------------------|
G|-16---14---12---11------------------------|
D|-17---16---14---13------------------------|
A|------------------------------------------|
E|------------------------------------------|

[Primeira Parte]

Em            D
  Que quede claro 
    C            
Si tú te portas bien 
    B7
Yo te lo voy a dar 
      Em              D
Como nunca te lo han dado
C              B7
 No te equivoques

[Riff]

   Em   D    C    B7
E|-15---14---12---11------------------------|
B|-17---15---13---10------------------------|
G|-16---14---12---11------------------------|(2x)
D|-17---16---14---13------------------------|
A|------------------------------------------|
E|------------------------------------------|

Em             D
  Cuida el terreno
         C                      B7
No sabes en lo que te estás metiéndo 
                 Em               D   C  B7
Una vez que tu siembres en otro suelo

[Refrão]

                    Em
Porque yo soy tu veneno
       D     
Controlando tu cuerpo 
 C                  B7
Tú me das lo que quiero 
          Em
Soy tu veneno
          D
Estás jugando con fuego 
 C              B7
Cuidao que te quemo 
 
                    Em
Porque yo soy tu veneno
       D     
Controlando tu cuerpo 
 C                  B7
Tú me das lo que quiero 
          Em
Soy tu veneno
          D
Estás jugando con fuego 
 C                  B7
Ten cuidao que te quemo 

( Em  D  C  B7 )
( Em  D  C  B7 )

[Riff]

   Em   D    C    B7
E|-15---14---12---11------------------------|
B|-17---15---13---10------------------------|
G|-16---14---12---11------------------------|(2x)
D|-17---16---14---13------------------------|
A|------------------------------------------|
E|------------------------------------------|

[Segunda Parte]
 
      Em            D
Que pienses más en mi 
    C                B7
De lo que pienso en ti 
  Em            D
Tratas de mantenerte en el juego
C               B7
  Y te dejo seguir
         Em       
Aún no tienes claro
  D
Que soy la que controla 
      C
Pero dale vamos 
 B7                       Em
Paso a paso que me va elevando el calor 
 D           C         
Tu pantalón va guayando
         B7
Y ya te tengo pensando 

[Refrão]

                    Em
Porque yo soy tu veneno
       D     
Controlando tu cuerpo 
 C                  B7
Tú me das lo que quiero 
          Em
Soy tu veneno
          D
Estás jugando con fuego 
 C              B7
Cuidao que te quemo 
 
                    Em
Porque yo soy tu veneno
       D     
Controlando tu cuerpo 
 C                  B7
Tú me das lo que quiero 
          Em
Soy tu veneno
          D
Estás jugando con fuego 
 C                  B7
Ten cuidao que te quemo  

[Primeira Parte]

Em            D
  Que quede claro 
    C            
Si tú te portas bien 
    B7
Yo te lo voy a dar 
      Em              D
Como nunca te lo han dado
C              B7
 No te equivoques

[Riff]

   Em   D    C    B7
E|-15---14---12---11------------------------|
B|-17---15---13---10------------------------|
G|-16---14---12---11------------------------|(2x)
D|-17---16---14---13------------------------|
A|------------------------------------------|
E|------------------------------------------|

Em             D
  Cuida el terreno
         C                      B7
No sabes en lo que te estás metiéndo 
                 Em               D   C  B7
Una vez que tu siembres en otro suelo

[Refrão]

                    Em
Porque yo soy tu veneno
       D     
Controlando tu cuerpo 
 C                  B7
Tú me das lo que quiero 
          Em
Soy tu veneno
          D
Estás jugando con fuego 
 C              B7
Cuidao que te quemo 
 
                    Em
Porque yo soy tu veneno
       D     
Controlando tu cuerpo 
 C                  B7
Tú me das lo que quiero 
          Em
Soy tu veneno
          D
Estás jugando con fuego 
 C                  B7
Ten cuidao que te quemo  

[Final] Em  D  C  B7 
        Em  D  C  B7  Em

   Em   D    C    B7
E|-15---14---12---11------------------------|
B|-17---15---13---10------------------------|
G|-16---14---12---11------------------------|(2x)
D|-17---16---14---13------------------------|
A|------------------------------------------|
E|------------------------------------------|
reproducciones 55
Acordes para:
    Composição: Anitta / Camilo Echeverry / Eduardo Vargas / Marco E. Masis Colaboración y revision:
    • Thiago Almeida

    0 comentarios

    mostrar más comentarios

    ¿Conseguiste tocar?

    1 tocaron 5 aún no

    ¡Graba un vídeo tocando Veneno y envianoslo!

    00:00 / 00:00
    outros vídeos desta música
    repetir qualidade Automático
    Outros vídeos desta música
    00:00 / 00:00
    Automático
    OK