Cifra Club

Nobodys Wife

Anouk

Cifrado: Principal (guitarra y guitarra eléctrica)
tono: G
From:   Richard de Jong [*]
Sent:   Monday, December 29, 1997 2:16 PM


==============================================================================
                The file send in by * is written in E.
                In my opinion the guitar should be down-tuned to E-Flat.
==============================================================================

Version : CD Single
Album           : Together Alone
Publisher       : Bouncin'Balls / TBM INT.C.V.
------------------------------------------------------------------------------
Tabbed by       : Richard de Jong, The Netherlands 
Date        : December 29, 1997
E-Mail      : * 

==============================================================================

If you have any comments regarding the song please let me know.
This is the first time I tabbed a song in my life. I never had any 
guitar lessons so probably there will be some mistakes.

This document only displays the patterns for the first guitar. If
anyone can tab the second guitar and the solo, please do so, and
let me know.

==============================================================================

Tuning  Tune Guitar in Eb (E-Flat)
                (On the CD it's a bit more down than E-Flat.)

==============================================================================

Patterns for First Guitar

Pattern 1
        
       1.1              1.2              1.3              1.4
          [----------0-----|----------------|----------------|----------------]
          [-------0-------0|-------3--------|----------1-----|----------------]
          [----0-----------|----0-----0-----|-------2-------0|-----0-----2----]
          [----------------|---------------0|----2-----------|---0----------0-]
          [----------------|3---------------|0---------------|----------------]
          [0---------------|----------------|----------------|3-------2-------]

Pattern 2
       2.1              2.2              2.3              2.4
          [----------0-----|----------------|----------------|----------------]
          [-------0-------0|-------3--------|1---------------|----------------]
          [----0-----------|----0-----0-----|2---------------|----------------]
          [----------------|---------------0|3---------------|----------------]
          [----------------|3---------------|3---------------|----------------]
          [0---------------|----------------|----------------|----------------]

Pattern 3
       3.1              3.2              3.3              3.4
          [----------------|----------------|----------------|----------------]
          [----------------|----------------|----------------|----------------]
          [9---9-------X-X-|5---5-------X-X-|----------------|--------7-------]
          [9---9-------X-X-|5---5-------X-X-|7-7-7-7-----7-7-|5-------7-------]
          [7---7-------X-X-|3---3-------X-X-|7-7-7-7-----7-7-|5-------5-------]
          [----------------|----------------|5-5-5-5-----5-5-|3---------------]

Pattern 4
       4.1              4.2              4.3              4.4
          [----------------|----------------|----------------|----------------]
          [----------------|----------------|----------------|----------------]
          [----------------|7---------------|----------------|5---------------]
          [7---------------|7---------------|5---------------|5---------------]
          [7---------------|5---------------|5---------------|3---------------]
          [5---------------|----------------|3---------------|----------------]

============================================================================
Song & Play Pattern

____________________________________________________________________________
---------------------------------FIRST COUPLET------------------------------

 *

 *

 *
        
 *
                                                     I              am

 *
  sorry                   for the   times    that    I    made     you 
 *
  screan                  for the   times    that    I    killed   your 
 *
  dreams                  for the   times    that    I    made     your
 *
  whole          world             rumble

 *
                          for the   times    that    I    made     you
 *
  cry                     for the   times    that    I    told     you
 *
  lies                    for the   times    that    I    wathed   and  
 *
  let            you                stumble                     

 *
                                                                 It's to

____________________________________________________________________________
-----------------------------------CHORUS-----------------------------------

 *
  bad [but hey]                                               but that's
 *
  me                                                        What goes a-  
 *
  round                      comes  around                        you'll 
 *
  see                                                         That I can

 *
  carry                                                              the
 *
  burden         of                  pain             Cause it ain't the
 *
  first time [now] [oh no]                                        that a
 *
  man           goes               insane                  When I spread

 *
  my            wings                                      to        em-
 *
  brace     hime        for          life                Sucking out his
 *
  love  ah,   I'll                   never be                  
 *
  nobody's                           wife

____________________________________________________________________________
--------------------------------SECOND COUPLET------------------------------

 *

 *

 *
        
 *
                                                     I               am

 *
  sorry                   for the   times    that    I    didn't   come
 *
  home                    left you  lying       in     that     bed  a-
 *
  lone                      flying   high    in    the   sky  when  you
 *
  needed           my           shoulder

 *
                         You're like stone   hanging      round      my  
 *
  neck, see                  Cut it loose   before       it breaks   my
 *
  back, see               I've gotta say    what   I     feel    before 
 *
  I               grow             older

 *
  Sorry                       but I  ain't   gonna       change      my
 *
  ways                 You know I've tried   but    I'm     still   the
 *
  same                          I've got     to          do          it   
 *
  my                                 way

 *
                                                                It's to

---------------------------------------------------------------------------

CHORUS

SOLO            (Pattern 3 four times)

CHORUS  (In the last pattern is a break, play along to get the feel)

END             (Pattern 3 four times) (Fade to End)

---------------------------------------------------------------------------

I hope you'll enjoy playing this beautiful song.

Remember that this just reflects the way I hear the song so anyone with
improvements on this tabbed song can rewrite the file or e-mail the
improvements to me.

---------------------------------------------------------------------------

00:00 / 00:00
Otros videos de esta canción
Repetir
Otros videos de esta canción
Compositor no encontrado.
156 exhibiciones
    • ½ Tono
    • A
    • Bb
    • B
    • C
    • Db
    • D
    • Eb
    • E
    • F
    • F#
    • G
    • Ab
  • Agregar a la lista
    00:00 / 00:00
    OK