Cifra Club

America Got It Right

Anti-Flag

Tab de bajo: Principal
Intro:
G|---------------------------------|
D|---------------------------------|
A|-4-4-4-4-4-4-4-4-very-many times-|
E|---------------------------------|

G|-------------------4-4---------------------------------1-|
D|-----7-7-6-6-----------7-7-6-----------------------4-4---|
A|-4-4---------7-------------------9-9-7-7-6-----4-4-------|x2
E|---------------5-5-----------7-7-----------2-2-----------|

Verse:
G|--------------------------4---------------------|
D|-----4-6-7-6-6-7-6----------7-6-----------------|
A|4------------------7--------------9-7-6-------2-|
E|---------------------5----------7-------2---2---|

G|--------------------------4-----------------------------|
D|-----4-6-7-6-6-7-6----------7-6-------------------------|
A|4------------------7--------------9-7-6-----------2-2-2-|
E|---------------------5----------7-------2-2-2-2-2-------|

Chorus:
G|-----------------------------------------------------------------|
D|---7-6-----7-6-----7-6---9-7-6------7-6-----7-6-----7-6----------|
A|-4-----7-------7-------7-------7--4-----7-------7-------7-9-7-6--|
E|---------5-------7------------------------5-------7------------5-|

G|-----------------------------------------------------------------|
D|---7-6-----7-6-----7-6---9-7-6------7-6-----7-6-----7-6---9------|
A|-4-----7-------7-------7-------7--4-----7-------7-------7--------|
E|---------5-------7------------------------5-------7--------------|

Intro:
G|-------------------4-4---------------------------------1-|
D|-----7-7-6-6-----------7-7-6-----------------------4-4---|
A|-4-4---------7-------------------9-9-7-7-6-----4-4-------|x2
E|---------------5-5-----------7-7-----------2-2-----------|

Verse:
G|--------------------------4---------------------|
D|-----4-6-7-6-6-7-6----------7-6-----------------|
A|4------------------7--------------9-7-6-------2-|
E|---------------------5----------7-------2---2---|

G|--------------------------4-----------------------------|
D|-----4-6-7-6-6-7-6----------7-6-------------------------|
A|4------------------7--------------9-7-6-----------2-2-2-|
E|---------------------5----------7-------2-2-2-2-2-------|

Chorus:
G|-----------------------------------------------------------------|
D|---7-6-----7-6-----7-6---9-7-6------7-6-----7-6-----7-6----------|
A|-4-----7-------7-------7-------7--4-----7-------7-------7-9-7-6--|
E|---------5-------7------------------------5-------7------------5-|

G|-----------------------------------------------------------------|
D|---7-6-----7-6-----7-6---9-7-6------7-6-----7-6-----7-6---9------|
A|-4-----7-------7-------7-------7--4-----7-------7-------7--------|
E|---------5-------7------------------------5-------7--------------|

Bridge:
G|-------------4-----------------------1-|
D|----7-6--------7-6-----------------4---|
A|-4------7-------------9-7-6----2-4-----|
E|----------5--------7--------2----------|

G|--------------4-----------------|
D|----7-6---------7-6-------------|
A|-4-------7-------------9-7-6----|
E|-----------5--------7--------2--|

G|-------------------------------------4-4-------------|
D|-----------7-7-6-6-----------------------7-7-6-6-----|
A|-4-4-4-4-4---------7-7-6-6-----------------------7---|
E|---------------------------5-5-5-5-5-----------------|

G|----------------------------------------1-|
D|----------------------------------4-4-4---|
A|----------9-9-7-7-6-6---------------------|
E|7-7-7-7-7-------------7-2-2-2-2-2---------|

G|-------------------------------------4-4-------------|
D|-----------7-7-6-6-----------------------7-7-6-6-----|
A|-4-4-4-4-4---------7-7-6-6-----------------------7---|
E|---------------------------5-5-5-5-5-----------------|

G|----------------------------------|
D|----------------------------------|
A|----------9-9-7-7-6-6-------------|
E|7-7-7-7-7-------------7-2-2-2-2-2-|

Chorus/Outro:
G|-----------------------------------------------------------------|
D|---7-6-----7-6-----7-6---9-7-6------7-6-----7-6-----7-6----------|
A|-4-----7-------7-------7-------7--4-----7-------7-------7-9-7-6--|x4
E|---------5-------7------------------------5-------7------------5-|
00:00 / 00:00
Otros videos de esta canción
Repetir
Otros videos de esta canción
Composición de Justin Sane
19 exhibiciones
00:00 / 00:00
OK