Cifra Club

Angry, Young And Poor

Anti-Flag

Chords: Principal (acoustic and electric guitars)
tone: D
< - Continuous Strumming 
H - Hammer On 
P - Pull Off 
 
Intro (depois do baixo) 
e|--------------------------------|  
B|--------------------------------|  
G|--------4-----6<----------4-----|  
D|--7--2--4--4--6<----7--2--4--4--|  
A|--7--2--2--4--4<----7--2--2--4--|  
E|--5--0-----2--------5--0-----2--|  
 
Main Riff: 
e|--------------4----------------|  
B|---5-4---5-4-7--7-5p4-7-5-4h5--|  
G|--6---4-6----------------------|  
D|-------------------------------|  
A|-------------------------------|  
E|-------------------------------|  
 
e|--------------4----------------|  
B|---5-4---5-4-7--7-5p4----------|  
G|--6---4-6-------------4~-------|  
D|-------------------------------|  
A|-------------------------------|  
E|-------------------------------| 
 
Verse: 
e|------------------|  
B|------------------|  
G|--------4---------|  
D|--7--2--4--4------| x3 
A|--7--2--2--4------|  
E|--5--0-----2------|  
 
Chorus: 
e|---------------------|  
B|---------------------|  
G|--6<-------4<--------|  
D|--6<-7<-2<-4<--------| x4 
A|--4<-7<-2<-2<--------|  
E|-----5<-0<-----------| 
 
Apenas b4 do Refrão, vc pode ouvir facilmente se vc prestar atenção! 
 
e|-9-9-9------------------|  
B|--9-9-9-----------------|  
G|------------------------|  
D|------------------------|  
A|------------------------|  
E|------------------------| 
 
 
e|--------------4----------------|  
B|---5-4---5-4-7--7-5p4-7-5-4h5--|  
G|--6---4-6----------------------|  
D|-------------------------------|  
A|-------------------------------|  
E|-------------------------------|  
 
e|--------------4----------7-----|  
B|---5-4---5-4-7--7-5p4----------|  
G|--6---4-6-------------4~-------|  
D|-------------------------------|  
A|-------------------------------|  
E|-------------------------------| 
 
Verse 
e|------------------|  
B|------------------|  
G|--------4---------|  
D|--7--2--4--4------| x3 
A|--7--2--2--4------|  
E|--5--0-----2------|  
 
Chorus 
e|---------------------|  
B|---------------------|  
G|--6<-------4<--------|  
D|--6<-7<-2<-4<--------| x4 
A|--4<-7<-2<-2<--------|  
E|-----5<-0<-----------| 
 
Depois do Refrão feito, apenas mantenha strumming como este aqui em baixo: 
 
e|---------------------|  
B|---------------------|  
G|--6<-----------------|  
D|--6<-----------------| 
A|--4<-----------------|  
E|---------------------|
00:00 / 00:00
Other videos of this song
Repeat
Other videos of this song
Composed by Justin Sane
Collaboration and Review:
  • Mike
11 views
    • ½ Tone
    • A
    • Bb
    • B
    • C
    • Db
    • D
    • Eb
    • E
    • F
    • F#
    • G
    • Ab
  • Add to list
    00:00 / 00:00
    OK