Cifra Club

Captain Anarchy

Anti-Flag

Cifrado: Principal (guitarra y guitarra eléctrica)
tono: Ab
E|-----------------------------------------------|
B|-----------------------------------------------|
G|-----------------------------------------------|
D|---Pick----------------------------------------|
A|--//Slide--------------------------------------|
E|-----------------------------------------------|

E|-----------------------------------------------|
B|-----------------------------------------------|
G|---8--88888888888888888888888888---------------|
D|---8--88888888888888888888888888---------------|
A|---6--66666666666666666666666666---------------|
E|-----------------------------------------------|
        __________________________
                    P.M.

E|-----------------------------------------------|
B|-----------------------------------------------|  4X
G|---888888888888--66666-------------------------|  
D|---888888888888--66666--66666------------------|
A|---666666666666--44444--66666------------------|
E|------------------------44444------------------|

GUITARRA 2
e|-----------------------------------------------|
B|-----------------------------------------------|  2X
G|---8-6-----8-6-----10-8-6-8-6------------------|
D|--------8-------8--------------8---------------|
A|-----------------------------------------------|
E|-----------------------------------------------|

E|-----------------------------------------------|
B|-----------------------------------------------|  4X
G|---8-888888--8-888888--6-666666----------------|
D|---8-888888--8-888888--6-666666--6-666666------|
A|---6-666666--6-666666--4-666666--6-666666------|
E|---------------------------------4-444444------|
       ______    ______    ______    ______
        P.M.      P.M.      P.M.      P.M.

E|-----------------------------------------------|
B|-----------------------------------------------|  4X
G|---888888888888--66666-------------------------|  
D|---888888888888--66666--66666------------------|
A|---666666666666--44444--66666------------------|
E|------------------------44444------------------|

e|-----------------------------------------------|
B|-----------------------------------------------|  2X
G|---8-6-----8-6-----10-8-6-8-6------------------|
D|--------8-------8--------------8---------------|
A|-----------------------------------------------|
E|-----------------------------------------------|

E|-----------------------------------------------|
B|-----------------------------------------------|  4X
G|---8-888888--8-888888--6-666666----------------|
D|---8-888888--8-888888--6-666666--6-666666------|
A|---6-666666--6-666666--4-666666--6-666666------|
E|---------------------------------4-444444------|
       ______    ______    ______    ______
        P.M.      P.M.      P.M.      P.M.

E|-----------------------------------------------|
B|-----------------------------------------------|  X3
G|---33333333--66666666--------------------------|
D|---33333333--66666666--------------------------|
A|---11111111--44444444--------------------------|
E|-----------------------------------------------|

E|-----------------------------------------------|
B|-----------------------------------------------|
G|---333333--555555--666666--888888--------------|
D|---333333--555555--666666--888888--------------|
A|---111111--333333--444444--666666--------------|
E|-----------------------------------------------|

E|-----------------------------------------------|
B|-----------------------------------------------|
G|---8~~~~8~~~~8~~~~8~~~~------------------------|
D|---8~~~~8~~~~8~~~~8~~~~------Pick--------------|
A|---6~~~~6~~~~6~~~~6~~~~---//Slide--------------|
E|-----------------------------------------------|

e|-----------------------------------------------|
B|-----------------------------------------------|  4X
G|---8-6-----8-6-----10-8-6-8-6------------------|
D|--------8-------8--------------8---------------|
A|-----------------------------------------------|
E|-----------------------------------------------|
    _______________________________
                 P.M

E|-----------------------------------------------|
B|-----------------------------------------------|  8X
G|---888888888888--66666-------------------------|  
D|---888888888888--66666--66666------------------|
A|---666666666666--44444--66666------------------|
E|------------------------44444------------------|

E|-----------------------------------------------|
B|-----------------------------------------------|
G|---8~---8--------------------------------------|
D|---8~---8--------------------------------------|
A|---6~---6--------------------------------------|
E|-----------------------------------------------|

00:00 / 00:00
Otros videos de esta canción
Repetir
Otros videos de esta canción
Composición de Chris Head / Justin Sane
Colaboración y revisión:
  • Lucas Hübner
22 exhibiciones
    • ½ Tono
    • A
    • Bb
    • B
    • C
    • Db
    • D
    • Eb
    • E
    • F
    • F#
    • G
    • Ab
  • Agregar a la lista
    00:00 / 00:00
    OK