Cifra Club

Die For Your Government

Anti-Flag

Tab de bajo: Principal
          TABby:Will
          E-MAIL:B*

          Intro/Chorus:

          D-----------3----------------3--------------------------
          A-5-1----5-1--3-5-1------5-1----------------------------
          E-----1-3-------------1-3-------------------------------

          Verse:

          D--00320-320--------------------------------------------
          A-------3-------31013-----------------------------------
          E--------------1----------------------------------------

          Bridge:

          G-000032--0000-------------------------------------------
          D-------3------03-----------------------------
00:00 / 00:00
Otros videos de esta canción
Repetir
Otros videos de esta canción
Compositor no encontrado.
36 exhibiciones
00:00 / 00:00
OK