Cifra Club

Emigre

Anti-Flag

Tab de bajo: Principal
Tabbed By : Xcrimson_ghostX
e-mail: *

Tuning: standard

(00:00)                 intro
G|----------------------------------------------------------------|
D|----------------------------------------------------------------|
A|-----------------4-4-4-4-6-6-6-6--------------------------------|
E|-4-4-4-4-4-4-4-4-----------------7-7-7-7-7-7-7-7-2-2-2-2-2-2-2-2|

G|----------------------------------------------------------------|
D|-------------------------------------------------4-4-4-4-4-4-4-4|
A|-----------------6-6-6-6-4-4-4-4--------------------------------|
E|-4-4-4-4-4-4-4-4-----------------7-7-7-7-7-7-7-7----------------|

G|----------------------------------------------------------------|
D|----------------------------------------------------------------|
A|-----------------4-4-4-4-6-6-6-6--------------------------------|
E|-4-4-4-4-4-4-4-4-----------------7-7-7-7-7-7-7-7-2-2-2-2-2-2-2-2|

G|---------------------------------------------------|
D|---------------------------------------------------|
A|-----------------6-6-6-6-4-4-4-4-------------------|
E|-4-4-4-4-4-4-4-4-----------------7-7-7-7-7-7-7-7-2-|

G|------------------------------------|
D|-------------------------------4-4-4|
A|-----4-6---------------6-4----------|
E|-4-4-----7-7-2-2-2-4-4-----7-7------|

  (00:34)          verse
G|------------------------------|
D|------------------------------|
A|---------------------------4-4|
E|-2-4-4-4-2-4-2-4-2-4-4-4-2----|

G|---------4-3-------------4-3---|
D|-----6-------6-4-----6-------4-|
A|---6---6-----------6---6-------|
E|-4---------------4-------------|

G|-------------------------------|
D|-------------------------------|
A|---------------------------4-4-|
E|-2-4-4-4-2-4-2-4-2-4-4-4-2-----|

   (00:50)        pre chorus
G|-------------|
D|------6h8p6--|
A|-2--2-------9|
E|-------------|

   (00:58)        chorus
G|------------------------------------|
D|-------------------------------4-4-4|
A|-----4-6---------------6-4----------|
E|-4-4-----7-7-2-2-2-4-4-----7-7------|

    (01:15)       verse
G|------------------------------|
D|------------------------------|
A|---------------------------4-4|
E|-2-4-4-4-2-4-2-4-2-4-4-4-2----|

G|---------4-3-------------4-3---|
D|-----6-------6-4-----6-------4-|
A|---6---6-----------6---6-------|
E|-4---------------4-------------|

G|-------------------------------|
D|-------------------------------|
A|---------------------------4-4-|
E|-2-4-4-4-2-4-2-4-2-4-4-4-2-----|

     (01:32)     pre chorus
G|-------------|
D|------6h8p6--|
A|-2--2-------9|
E|-------------|

     (01:39)      chorus
G|------------------------------------|
D|-------------------------------4-4-4|
A|-----4-6---------------6-4----------|
E|-4-4-----7-7-2-2-2-4-4-----7-7------|

     (01:56)      bridge
G|-------------------------------------|
D|------6-6--------------6-6-----------|
A|--------------4-6--------------6-4---|
E|-4--4-----7-2-----4--4-----7-2-----4-|

G|----------------|
D|---6-6----------|
A|-----------4-6--|
E|-4-----7-2-----4|

G|----------------------------------------------------------------|
D|----------------------------------------------------------------|
A|-----------------4-4-4-4-6-6-6-6--------------------------------|
E|-4-4-4-4-4-4-4-4-----------------7-7-7-7-7-7-7-7-2-2-2-2-2-2-2-2|

G|----------------------------------------------------------------|
D|-------------------------------------------------4-4-4-4-4-4-4-4|
A|-----------------6-6-6-6-4-4-4-4--------------------------------|
E|-4-4-4-4-4-4-4-4-----------------7-7-7-7-7-7-7-7----------------|

G|----------------------------------------------------------------|
D|----------------------------------------------------------------|
A|-----------------4-4-4-4-6-6-6-6--------------------------------|
E|-4-4-4-4-4-4-4-4-----------------7-7-7-7-7-7-7-7-2-2-2-2-2-2-2-2|

G|---------------------------------------------------|
D|---------------------------------------------------|
A|-----------------6-6-6-6-4-4-4-4-------------------|
E|-4-4-4-4-4-4-4-4-----------------7-7-7-7-7-7-7-7-2-|

   (02:36)         outro
G|---------------------------------------------|
D|-------------6-4---4---------------6-4---4---|
A|-----4-6---------6---6-----6-4---------6---6-|
E|-4-4-----7-7-----------4-4-----7-7-----------|

| /  slide up
| \  slide down
| h  hammer-on
| p  pull-off
| ~  vibrato
| +  harmonic
| x  Mute note
===============================================================================
00:00 / 00:00
Otros videos de esta canción
Repetir
Otros videos de esta canción
Composición de Anti-Flag
12 exhibiciones
00:00 / 00:00
OK