Cifra Club

Fuck Police Brutality

Anti-Flag

Cifrado: Principal (guitarra y guitarra eléctrica)
tono: Db
INTRO:
--------------------------------------------------------------
--------------------------------------------------------------
--------------------------------------------------------------
8--8--6--4--6-----8--8--6--4--6-------------------------------
6--6--4--2--4-----6--6--4--2--4-------------------------------
--------------------------------------------------------------
VERSE
--------------------------------------------------------------
--------------------------------------------------------------
---P.M.---P.M.----P.M.---P.M.-----P.M.---------X2-------------
8-------8-------6-------4-------6-------8---------------------
6-6-6-6-6-6-6-6-4-4-4-4-2-2-2-2-4-4-4-4-6---------------------
--------------------------------------------------------------
CHORUS

--------------------------------------------------------------
--------------------------------------------------------------
-----------------------------------X2-------------------------
8888-11111111-13131313-1515151515151515151515151515-----------
6666-9 9 9 9 -11111111-1313131313131313131313131313-----------
--------------------------------------------------------------
VERSE AGAIN
CHORUS AGAIN

This IS the Part When Andy Flag Is Saying
 "But The Cops....

--------------------------------------------------------------
--------------------------------------------------------------
--------------------------------------------------------------
8-11-6-4------------------------------------------------------
6-9--4-2------------------------------------------------------
--------------------------------------------------------------

CHORUS AGAIN
00:00 / 00:00
Otros videos de esta canción
Repetir
Otros videos de esta canción
Compositor no encontrado.
25 exhibiciones
    • ½ Tono
    • A
    • Bb
    • B
    • C
    • Db
    • D
    • Eb
    • E
    • F
    • F#
    • G
    • Ab
  • Agregar a la lista
    00:00 / 00:00
    OK