Cifra Club

Hymn For The Dead

Anti-Flag

Cifrado: Principal (guitarra y guitarra eléctrica)
tono: G
Hymn For the Dead

I'm not promising this is 100% correct I did it in like 5 minutes as a favor to a friend 
sorry for the mistakes... I also didn't tab the strumming or the order because it's 
an easy song.

Intro-
Guitar 1
e --------------------------------------------------------------------------|
B --------------------------------------------------------------------------|
G ------------------------------7777----------------------------------------|
D --99999999--5555555555555555--7777-7777-----------------------------------|
A --99999999--5555555555555555--5555-7777-----------------------------------|
E --77777777--3333333333333333-------5555-----------------------------------|

Guitar 2
e --------------------------------------------------------------------------|
B --------------------------------------------------------------------------|
G -7-76-7-76-7-7676---7-76-7-76-7-7676--9--7-76-7-76-7-7676--7-76-7-76------|
D ------------------7--------------------------------------7-----------7----|
A --------------------------------------------------------------------------|
E --------------------------------------------------------------------------|

Verse-
e --------------------------------------------------------------------------|
B --------------------------------------------------------------------------|
G -------------------12-12-12-12--------14-14-------------------------------|
D --9-9-9-9-9-9-9-9--12-12-12-12--12-12-14-14-------------------------------|
A --9-9-9-9-9-9-9-9--10-10-10-10--12-12-12-12-------------------------------|
E --7-7-7-7-7-7-7-7---------------10-10-------------------------------------|

e --------------------------------------------------------------------------|
B --------------------------------------------------------------------------|
G --------------------------------------------------------------------------|
D --5555555555555555--9-9-9-9-9-9-9-9--5555555555555555--7~-----------------|
A --5555555555555555--9-9-9-9-9-9-9-9--5555555555555555--7~-----------------|
E --3333333333333333--7-7-7-7-7-7-7-7--3333333333333333--5~-----------------|

Chorus-
e --------------------------------------------------------------------------|
B --------------------------------------------------------------------------|
G ------------------------------7777----------------------------------------|
D --99999999--5555555555555555--7777-7777-----------------------------------|
A --99999999--5555555555555555--5555-7777-----------------------------------|
E --77777777--3333333333333333-------5555-----------------------------------|

Interlude-
e --------------------------------------------------------------------------|
B --------------------------------------------------------------------------|
G --------------------------------------------------------------------------|
D --5555555555555555/7777777777777777-55555555/55555555--9~-----------------|
A --5555555555555555/7777777777777777-55555555/55555555--9~-----------------|
E --3333333333333333/7777777777777777-33333333/55555555--7~-----------------|

e ------2------0------------------------------------------------------------|
B -----3------3-----3-32-------2--------------------------------------------|
G ----4------0-----2-2--2-----2---------------------------------------------|
D ---4------0-----0---------22----------------------------------------------|
A --2----------------------0------------------------------------------------|
E ---------3----------------------------------------------------------------|

e --------------------------------------------------------------------------|
B --------------------------------------------------------------------------|
G --------------------77777777----------------------------------------------|
D --99999999-55555555-77777777-77777777-------------------------------------|
A --99999999-55555555-55555555-77777777-------------------------------------|
E --77777777-33333333----------55555555-------------------------------------|

e --------------------------------------------------------------------------|
B --------------------------------------------------------------------------|
G --------------------77777777----------------------------------------------|
D --99999999-55555555-77777777-7--------------------------------------------|
A --99999999-55555555-55555555-7--------------------------------------------|
E --77777777-33333333----------5--------------------------------------------|
00:00 / 00:00
Otros videos de esta canción
Repetir
Otros videos de esta canción
Composición de Anti-Flag
18 exhibiciones
    • ½ Tono
    • A
    • Bb
    • B
    • C
    • Db
    • D
    • Eb
    • E
    • F
    • F#
    • G
    • Ab
  • Agregar a la lista
    00:00 / 00:00
    OK