Cifra Club

No Difference

Anti-Flag

Tab de bajo: Principal
Tabbed By : Xcrimson_ghostX
e-mail: *

Tuning: half step down

Intro
Gb|------------------------------------|
Db|------------------------------------| 
Ab|-0-0-0-0-0-0--9s12-12-12-12-12-12---| x3
Eb|------------------------------------|

Gb|----------------14---|
Db|------------9s14-----|
Ab|-0-0-0-0-0-0---------|
Eb|---------------------|
(On 4th time play this)

Pre-Chorus x2
Gb|---------9-7-7-7-9-----------9-7-7-7-9-----------------------------9-9--7-7--6-6-----|
Db|------------9-9-----------------9-9------7>-6>--------9-9--7-7--6-6-------------9-9--|
Ab|-0-0--9-7------------0-0--9-7---------5>-------7>--7-7-------------------------------| 
Eb|-------------------------------------------------------------------------------------|

Chorus
Gb|---------------------------------------------------6--4--6-6--4--6--|
Db|---------------------------------------------------x--x--x-x--x--x--|
Ab|-77-9-7--55-7-5--44-5-4--22-4-2----77-9-7--55-7-5--0--0--0-0--0--0--|
Eb|--------------------------------------------------------------------|

Gb|---------------------------------------------------14-14-14-14-14-14-|
Db|-----------------------------------------------9s14------------------|
Ab|-0-0-0-0-0-0-9s12-12-12-12-12-12----0-0-0-0-0-0----------------------|
Eb|---------------------------------------------------------------------|

Bridge
Gb|--------------------|
Db|--------------------|
Ab|-0---7---5---4-5-4--| x2
Eb|--------------------|

Fill
Gb|-------------------------------------|
Db|--------------------------7-7---7-7--|
Ab|-0-0--7-7--0-0--7-7----5-5---5-5-----| x4
Eb|-------------------------------------|

Chorus

Bridge

Fill 2
Gb|----------------------------------------5-5---5-5----------------|
Db|----9-9--7-7--6-6-----7-7--6-6--4-4-------------------5-5---5-5--|
Ab|-7-7----------------5-5--------------0-0---0-0-----0-0---0-0-----| x4
Eb|-----------------------------------------------------------------|

Pre-Chorus

Bridge

Pre-Chorus

Ending
Gb|-14-14-14-14-14-14-14-14---14-14-14-14-14-14-14-14---18--16--14--13--16--14--13--11-|
Db|------------------------------------------------------------------------------------|
Ab|------------------------------------------------------------------------------------|
Gb|------------------------------------------------------------------------------------|

| /  slide up
| \  slide down
| h  hammer-on
| p  pull-off
| ~  vibrato
| +  harmonic
| x  Mute note
===============================================================================
00:00 / 00:00
Otros videos de esta canción
Repetir
Otros videos de esta canción
Composición de Justin Sane
16 exhibiciones
00:00 / 00:00
OK