Cifra Club

Project For A New American Century

Anti-Flag

Cifrado: Principal (guitarra y guitarra eléctrica)
tono: F#
Legend
.= Palmmute
~= hold note

Intro
E|---------------------------|
B|---------------------------|
G|---------------------------|
D|8-68-686-8-68-686-888688868|
A|8-68-686-8-68-686-888688868|
E|6-46-464-6-46-464-666466646|

Intro Part 2 x2
Lead
E|11-------22------11-------22--11--|
B|--22-------22------22-------22--44|
G|----33-------33------33-----------|
D|------44-------44------44---------|
A|----------------------------------|
E|----------------------------------|

E|11-------22-----------------------|
B|--22-------22---------------------|
G|----33-------33---6-66-666--------|
D|------44-------44-6-66-6666-66-666|
A|------------------4-44-4446-66-666|
E|--------------------------4-44-444|

Rhythm
E|------------------------------|
B|------------------------------|
G|3-----------3-----------------|
D|3(x8)-4-----3(x8)-4-----6-----|
A|1-----4(x8)-1-----4(x4)-6(x4)-|
E|------2-----------2-----4-----|

Verse x2
E|----------------------------------|
B|----------------------------------|
G|3------3-3-3------6-66-666--------|
D|3(x28)-3-3-3(x16)-6-66-6666-66-666|
A|1------1-1-1------4-44-4446-66-666|
E|--------------------------4-44-444|
  .          .

Chorus
E|------------------------------------------------------------|
B|------------------------------------------------------------|
G|------------------6---------------------------6-------------|
D|8-8--------4------6(x16)-6------8------4------6(x16)-6------|
A|8-8--------4(x16)-4------6(x16)-8(x16)-4(x16)-4------6(x16)-|
E|6-6--------2-------------4------6------2-------------4------|

Post-Chorus
E|---------|
B|---------|
G|---------|
D|6-66-6666|
A|6-66-6666|
E|4-44-4444|

Bridge
Lead
E|11-------22------11-------22--11--|
B|--22-------22------22-------22--44|
G|----33-------33------33-----------|
D|------44-------44------44---------|
A|----------------------------------|
E|----------------------------------|

E|11-------22-----------------------|
B|--22-------22---------------------|
G|----33-------33---6-66-666--------|
D|------44-------44-6-66-6666-66-666|
A|------------------4-44-4446-66-666|
E|--------------------------4-44-444|

Rhythm
E|------------------------------|
B|------------------------------|
G|3-----------3-----------------|
D|3(x8)-4-----3(x8)-4-----6-----|
A|1-----4(x8)-1-----4(x4)-6(x4)-|
E|------2-----------2-----4-----|

Verse x2
E|----------------------------------|
B|----------------------------------|
G|3------3-3-3------6-66-666--------|
D|3(x28)-3-3-3(x16)-6-66-6666-66-666|
A|1------1-1-1------4-44-4446-66-666|
E|--------------------------4-44-444|

Some Other Part
x2
E|-------------------------------------------------------
B|-------------------------------------------------------
G|----6-6-8-8-------8----------6-6-8-8-------8-----6-----
D|4-4-6-6-8-8-------8(x16)-4-4-6-6-8-8-------8(x8)-6(x8)-
A|4-4-4-4-6-6-6h8p6-6------4-4-4-4-6-6-6h8p6-6-----4-----
E|2-2----------------------2-2---------------------------

Part After That
E|-----------------------------------|
B|-----------------------------------|
G|-------8---------------------------|
D|4------8(x16)-8------6------4------|
A|4(x16)-6------8(x16)-6(x16)-4(x32)-|
E|2-------------6------4------2------|

Clapping Part
E|----|
B|----|
G|----|
D|8-8-|
A|8-8-|
E|6-6-|

End of Clapping Part
E|-------|
B|-------|
G|-------|
D|6------|
A|6(x32)-|
E|4------|

Chorus
E|------------------------------------------------------------|
B|------------------------------------------------------------|
G|------------------6---------------------------6-------------|
D|8-8--------4------6(x16)-6------8------4------6(x16)-6------|
A|8-8--------4(x16)-4------6(x16)-8(x16)-4(x16)-4------6(x16)-|
E|6-6--------2-------------4------6------2-------------4------|

Post-Chorus
E|---------|
B|---------|
G|---------|
D|6-66-6666|
A|6-66-6666|
E|4-44-4444|

Outro
Lead
E|11-------22------11---------------|
B|--22-------22------22-------------|
G|----33-------33------33-----------|
D|------44-------44------44-4~------|
A|--------------------------4~------|
E|--------------------------2~------|

Rhythm
E|----------------------------------|
B|----------------------------------|
G|3-3-3-3---------3-3-3-3-----------|
D|3-3-3-3-4-4-4-4-3-3-3-3--4~-------|
A|1-1-1-1-4-4-4-4-1-1-1-1--4~-------|
E|--------2-2-2-2----------2~-------|
00:00 / 00:00
Otros videos de esta canción
Repetir
Otros videos de esta canción
Composición de Anti-Flag
43 exhibiciones
    • ½ Tono
    • A
    • Bb
    • B
    • C
    • Db
    • D
    • Eb
    • E
    • F
    • F#
    • G
    • Ab
  • Agregar a la lista
    00:00 / 00:00
    OK