Cifra Club

Thats Youth

Anti-Flag

Tab de bajo: Principal
That's Youth
tabbed by: *

this song is basically just 4 chords the whole way through but
throws some other notes in there

Intro/Chorus:
-------------------------------------------
-4-4-4-3-3-------4-4-----------------------
-----------4-4-4-----------1-1-2-2-2-2-2---
---------------------4-4-4---------------4-

Verse:
-----3-3-6-6-3-3---------------------------------------------1-1-
-4-4-----------------3-3-6-6-3-3---------------------1-1-4-4-----  (2x)
-----------------4-4-----------------3-3-6-6-3-3-2-2-------------
---------------------------------4-4-----------------------------

-------------------------------------------------
-4-4-4-4-4-4-------------------------------------
-------------4-4-4-4-4-4-------------2-2-2-2-2-2-
-------------------------4-4-4-4-4-4-------------

1st part of Bridge:
-----------------------------------------------------------------
-4-4-4-4-4-4-----------------------------------------------------
-------------4-4-4-4-4-4-------------2-2-2-2-2-2-------------4-4-
-------------------------4-4-4-4-4-4-------------2-2-2-2-2-2-----

---------------------------------
---------------------------------
-4-4-4-4-------------2-2-2-2-2-2-
---------4-4-4-4-4-4-------------

2nd part of bridge: (after pause)
---------------------------------------------------------------
-4-4-4-3-3-------4-4-------------------------------------------
-----------4-4-4-----------1-1-2-2-2-2-2---------------4-4-4-4-
---------------------4-4-4---------------4-2-2-2-2-2-2---------

-----------------------------
-----------------------------
-4-4---------1-1-2-2-2-2-2---
-----4-4-4-4---------------4-








00:00 / 00:00
Otros videos de esta canción
Repetir
Otros videos de esta canción
Composición de Justin Sane
16 exhibiciones
00:00 / 00:00
OK