Cifra Club

Underground Network

Anti-Flag

Cifrado: Principal (guitarra y guitarra eléctrica)
tono: B
Intro (2x) 
 
E|----------------------------------------------------| 
B|---0-0-0-3-3-2-2---0-0-0-3-3-2-2--------------------| 
G|----------------------------------0-----------------| 
D|----------------------------------------------------| 
A|----------------------------------------------------| 
E|----------------------------------------------------| 
 
 
E|----------------------------------------------------| 
B|---0-0-0-3-3-2-2---0-0-3-3-5-5-0--------------------| 
G|----------------------------------------------------| 
D|----------------------------------------------------| 
A|----------------------------------------------------| 
E|----------------------------------------------------| 
 
B                         G 
The national media cover clinton/lewinsky  
B                                               G 
While the world's governments sell out millions on the issue of free trade  
 
       B 
But somewhere in the night   
E|----------------------------------------------------| 
B|---0-0-0-3-3-2-2------------------------------------| 
D|----------------------------------------------------| 
       G 
A force is not asleep  
E|----------------------------------------------------| 
B|-------------------0-0-3-3-5-5----------------------| 
D|----------------------------------------------------| 
       B                           G       F#     B 
Ad a massive organization plans to rise up to its feet...  
E|----------------------------------------------------| 
B|---0-0-0-3-3-2-2------------------------------------| 
D|----------------------------------------------------| 
        
It does it like this...  
 
(Intro 2x) 
 
 B                             G 
A pirate radio voice transmite into the night 
 B                                  G 
And from D.C. to Peking email warns of lost global rights  
       B 
And the hoax the world's leaders,  
E|----------------------------------------------------| 
B|---0-0-0-3-3-2-2------------------------------------| 
D|----------------------------------------------------| 
       G 
Wanted no one to see  
E|----------------------------------------------------| 
B|-------------------0-0-3-3-5-5----------------------| 
D|----------------------------------------------------|  
       B 
Comes crashing on their heads from grass roots 
E|----------------------------------------------------| 
B|---0-0-0-3-3-2-2------------------------------------| 
D|----------------------------------------------------| 
       G             F#      
Striking it down the blows coming for the world's...  
  B 
Underground network 
  G           F#                         
Alternative communication... 
  B                                       G             F# 
Corporate media can't keep us beat down, brainwashed, enslaved cause of our...  
  B     
Underground network 
  G           F#  
Alternative communication... 
 
 G          F# 
They try to blind us but we...  
 B 
Stand up and fight! stand up and fight!  
 G          F# 
They try to keep us ignorant but we...  
 B 
Stand up and fight! stand up and fight!  
 G          F# 
They want to make our rights away so...  
 B 
Stand up and fight fight...!  
 
(Intro) 
Just take a look around the world and you're going to find that nearly all mass media are owned 
and controlled by a handful Of conservative capitalists. 
We must devise and implement alternative methods of distributing our news, our information, 
our ideas people worldwide working together to make a stand, to tell the truth! 
 
(Intro) 
Underground network   
Alternative communication...
00:00 / 00:00
Otros videos de esta canción
Repetir
Otros videos de esta canción
Compositor no encontrado.
Colaboración y revisión:
  • Mike
16 exhibiciones
    • ½ Tono
    • A
    • Bb
    • B
    • C
    • Db
    • D
    • Eb
    • E
    • F
    • F#
    • G
    • Ab
  • Agregar a la lista
    00:00 / 00:00
    OK