Cifra Club

War Sucks Lets Party

Anti-Flag

Tab de bajo: Principal
Tabbed by Max Guhlke (Max.G*)

G|-------------------------|
D|-4h7p4-------------------|
A|-------4h7p4-------4h7p4-|
E|-------------4h7p4-------|
                                 
G|---------------------------14----------14--------------------|
D|-----------------------------14----------14------------99999-|
A|-12121212121212121212121212----12121212----121212121212------|
E|-------------------------------------------------------------|

G|-------------------------------------|
D|--------------------7777764277777976-|
A|-4444742/4-4444742/4-----------------|
E|-------------------------------------|

G|-------------------------------|
D|-4444444444444467777777799999--|
A|-------------------------------|
E|-------------------------------|

__________________________________________________________________________2x


G|---------------------------------|
D|-----------------444444444446666-|
A|-4444444444444422----------------|
E|---------------------------------|

G|-----|
D|-----|
A|-4~--|
E|-----|

That´s it ! Pretty short and also easy stuff so enjoy it !
00:00 / 00:00
Otros videos de esta canción
Repetir
Otros videos de esta canción
Composición de Anti-Flag
17 exhibiciones
00:00 / 00:00
OK