Cifra Club

Backwards

Apartment 26

Cifrado: Principal (guitarra y guitarra eléctrica)
tono: G
BITCHIN' TABS

          URL: *
        EMAIL: *

        THIS IS AN EXCLUSIVE TAB TO "BITCHIN' TABS"

 ----------------------------------------------------------------------------------------------

            ALBUM: Hallucinating
   TRANSCRIBED BY: Chris Frazier (*)
             DATE: 09-09-2K1

 ----------------------------------------------------------------------------------------------

        TUNING: Drop D (D A D G B E)

     Riff 1:
    E|----------|
    B|----------|
    G|----------| PM=palm mute
    D|----------|
    A|-5-3------|
    D|-----0--0-|

     Riff 2:
    E|----------------|----------------|
    B|----------------|----------------|
    G|----------------|-------------7--|
    D|-4----0-5----0--|-4----0-5----x--|
    A|-4----0-5----0--|-4----0-5----5--|
    D|-4----0-5----0--|-4----0-5-------|

     Riff 3:
    E|----------------|
    B|----------------|
    G|----------------|
    D|-5----0-5----0--|
    A|-5----0-5----0--|
    D|-5----0-5----0--|
00:00 / 00:00
Otros videos de esta canción
Repetir
Otros videos de esta canción
Composición de Apartment 26
17 exhibiciones
    • ½ Tono
    • A
    • Bb
    • B
    • C
    • Db
    • D
    • Eb
    • E
    • F
    • F#
    • G
    • Ab
  • Agregar a la lista
    00:00 / 00:00
    OK