Cifra Club

Party Tonight

Apenas Um Show

Tablatura: Principal
reproducciones 1.368
Tono: F
E|--------------------------|
B|--------------------------|
G|-7------------------------|
D|--10-7-10-7-7-------------|
A|-----------10-10-8-7------|
E|---------------------10-8-|

Dm                      C
Your eyes staring into my eyes
       F       A#            Dm           C
Who am I but a guy with two eyes on the prize
Dm                  C
And prize in my eyes is ten times
        F       A#              Dm           C
The surprize in your eyes as I kiss you goodnight.

A#                          A        Dm
Your smile is the fire that rocks my soul
      F        C                A#
Gonna remember it until I grow old
 A#                          A         Dm
'cause life is too short, we gotta do things right.
F               C              A#
So baby let's just party tonight
F               C           A#
Baby let's just party tonight.

E|-------------------------------------------------------|
B|-------------------------------------------------------|
G|-7-9-10-9-7-9-9--14-12-14--12-10-12-10-12-14-15--14-12-|
D|-------------------------------------------------------|
A|-------------------------------------------------------|
E|-------------------------------------------------------|

A#
We've come out on top,
 A           Dm
We're in front of the line.
   F     C
We're rock to out
         A#
And have a good time
 A#
'cause past is the past
A        Dm
And the future is bright
F               C             A#
So baby let's just party tonight.
F               C           A#
Baby let's just party tonight.
Acordes para:
    Colaboración y revision:
    • Lucas Eduardo
    • Luca Scheidt
    • Lucas Lopes

    0 comentarios

      mostrar más comentarios

      ¿Conseguiste tocar?

      7tocaron0aún no

      ¡Graba un vídeo tocando Party Tonight y envianoslo!

      00:00 / 00:00
      outros vídeos desta música
      repetirqualidadeautomática
      Outro vídeos desta música
        00:00 / 00:00
        automática
        OK