Cifra Club

Burn

Apocalyptica

Cifrado: Principal (guitarra y guitarra eléctrica)
Selo Cifra Club: esta cifra foi revisada para atender aos critérios oficiais da nossa Equipe de Qualidade.
tono: Am
E|4-4-4-4-4-3-4_-3h4p3-4-6-3\1---3-4-3-1-|
B|-----------------------------3---------|
G|E|---------------------------------------|
D|E|---------------------------------------|
A|E|---------------------------------------|
E|E|---------------------------------------|


E|4-4-4-4-4-3-4_-3h4p3-4-6-3\1---3-4-3-4-|
B|-----------------------------3---------|
G|E|---------------------------------------|
D|E|---------------------------------------|
A|E|---------------------------------------|
E|E|---------------------------------------|

E|4---3--1---1-|
B|---------3---|
G|-------------|
D|-------------|
A|-------------|
E|-------------|


E|-66-5-3-5-1_--88-77-55-00-875-3-3-3-5-6-|
B|3-----------33--------------------------|
G|-E|---------------------------------------|
D|-E|---------------------------------------|
A|-E|---------------------------------------|
E|-E|---------------------------------------|

E|-66-5-3-5-1_--88-77-55-00-875-3-6-5-6-5-|
B|3-----------33--------------------------|
G|-E|---------------------------------------|
D|-E|---------------------------------------|
A|-E|---------------------------------------|
E|-E|---------------------------------------|

E|5____1---1-3-4_-3-1-1__3-4-1-----| ___
B|-------3-----------3-------------|
G|---------------------------------|
D|---------------------------------|
A|---------------------------------|
E|---------------------------------|

E|4-4-4-4-4-3-4_-3h4p3-4-6-3\1---3-4-3-1-|
B|-----------------------------3---------|
G|E|---------------------------------------|
D|E|---------------------------------------|
A|E|---------------------------------------|
E|E|---------------------------------------|


E|--4-4-3-4-3-4_-3h4p3-4-6-3\4---3-4-3-4-|
B|3----------------------------3---------|
G|E|---------------------------------------|
D|E|---------------------------------------|
A|E|---------------------------------------|
E|E|---------------------------------------|

E|-66-5-3-5-1_--88-77-55-00-875-3-3-3-5-6-|
B|3-----------33--------------------------|
G|-E|---------------------------------------|
D|-E|---------------------------------------|
A|-E|---------------------------------------|
E|-E|---------------------------------------|

E|-66-5-3-5-1_--88-77-55-00-875-3-6-5-6-5-|
B|3-----------33--------------------------|
G|-E|---------------------------------------|
D|-E|---------------------------------------|
A|-E|---------------------------------------|
E|-E|---------------------------------------|

E|E|---------------------------------------|
B|E|---------------------------------------|
G|E|---------------------------------------|
D|E|---------------------------------------|
10----9----7----9-----6----------------|
8-----7----5----7-----4----------------|
E|---------------------------------------|

E|-66-5-3-5-1_--88-77-55-00-875-3-3-3-5-6-|
B|3-----------33--------------------------|
G|-E|---------------------------------------|
D|-E|---------------------------------------|
A|-E|---------------------------------------|
E|-E|---------------------------------------|

E|-66-5-3-5-1_--88-77-55-00-875-3-6-5-6-5-|
B|3-----------33--------------------------|
G|-E|---------------------------------------|
D|-E|---------------------------------------|
A|-E|---------------------------------------|
E|-E|---------------------------------------|

E|-66-5-3-5-1_--88-77-55-00-875-3-3-3-5-6-|
B|3-----------33--------------------------|
G|-E|---------------------------------------|
D|-E|---------------------------------------|
A|-E|---------------------------------------|
E|-E|---------------------------------------|
Otros videos de esta canción
    0 exhibiciones
      • ½ Tono
      • Am
      • Bbm
      • Bm
      • Cm
      • C#m
      • Dm
      • Ebm
      • Em
      • Fm
      • F#m
      • Gm
      • G#m
    • Agregar a la lista

    Afinação da cifra

    Afinador online

      Ops (: Contenido disponible solo en portugués.
      OK