Cifra Club

Fade To Black

Apocalyptica

Cifrado: Principal (guitarra y guitarra eléctrica)
Selo Cifra Club: esta cifra foi revisada para atender aos critérios oficiais da nossa Equipe de Qualidade.
tono: D
E|--------------------|--------------------------|----------------------|
B|--------------------|--------------------------|----------------------|
G|--------------------|--------------------------|----------------------|
D|--------------------|--------------------------|----------------------|
A|----9-10-9----9---9-|-----9--10--9----9------9-|----9--10--9----9----9|
E|--7--------7----10--|--5-----------5----10-----|--7----------7----10--|

E|----------------------------|
B|----------------------------|
G|----------------------------|
D|------7---------------------|
A|----7---7----7--------------|
E|--9--------9----5-9---------|
Otros videos de esta canción
    10 exhibiciones
      • ½ Tono
      • A
      • Bb
      • B
      • C
      • Db
      • D
      • Eb
      • E
      • F
      • F#
      • G
      • Ab
    • Agregar a la lista

    Afinação da cifra

    Afinador online

      Ops (: Contenido disponible solo en portugués.
      OK