Cifra Club

Last Hope

Apocalyptica

Cifrado: Principal (guitarra y guitarra eléctrica)
Selo Cifra Club: esta cifra foi revisada para atender aos critérios oficiais da nossa Equipe de Qualidade.
tono: Cm
intro

0:35 Riff 1
E|---------------|--------------|--------------|-----------------|
B|---------------------------------------------------------------|
G|---------------------------------------------------------------| X4
D|---------------------------------------------------------------|
A|-0h5h7h8-5h7h8--0h5h7h8-5h7h8--0h4h6h7-4h6h6--3-33-33--2-22-22-|
E|----------------------------------------------3-33-33--2-22-22-|

0:58 riff 2
E|---------------|--------------|--------------|-----------------|
B|---------------------------------------------------------------|
G|---------------------------------------------------------------| X2
D|-8~~p7h8h9p7~~---6~~h7b8~r5~~---8~~p7h8h9p7~~---6~~h7b8~r5~~---|
A|---------------------------------------------------------------|
E|---------------------------------------------------------------|

1:10 riff 3
E|-----------|------------|--------------|--------------------|
B|------------------------------------------------------------|
G|------------------------------------------------------------| X4
D|------------------------------------------------------------|
A|-0-7p0-8p7---0-7p0-8p7----66-66--55-55----------------------|
E|-0-7p0-8p7---0-7p0-8p7----66-66--55-55----------------------|
E|----PM---------------------------|

riff 1 X4
riff 2 X2
Riff 3 X4

2:28 Pre solo
E|---------|----------|
B|--------------------|
G|--------------------| X8
D|--------------------|
A|-55-55-55--66-66-66-|
E|--------------------|

OR (its on a wah pedal or just harmonized not sure)

E|---------|----------|
B|--------------------|
G|-33-33-33--44-44-44-| X8
D|--------------------|
A|--------------------|
E|--------------------|

Solo
(wah pedal) (I cant quite figure this part out but if i do or someone sends me a
tab I'l add it in)

Riff 3 X4
on 4th play


E|-----------|------------|--------------|-----------------|
B|---------------------------------------------------------|
G|---------------------------------------------------------| X4
D|---------------------------------------------------------|
A|-0----7----8----6----------------------------------------|
E|-0----7----8----6----------------------------------------|

Closing Riff

E|----------------|------------------|---------------|---------------|
B|-------------------------------------------------------------------|
G|-------------------------------------------------------------------| X4
D|-------------------------------------------------------------------|
A|-------------5~--------------5h7h8-------------7~--------------6h8-|
E|-0--0--0--0------0--0--0--0---------0--0--0--0------0--0--0--0-----|

on 4th play
E|-----------------------------------------|
B|------------7\----0--0--0--0--0--0--0--0-|
G|-0--0--0--0-7\----0--0--0--0--0--0--0--0-|


thats all i got for now
any comments welcome
flames not
remember its my first tab
Otros videos de esta canción
    0 exhibiciones
      • ½ Tono
      • Am
      • Bbm
      • Bm
      • Cm
      • C#m
      • Dm
      • Ebm
      • Em
      • Fm
      • F#m
      • Gm
      • G#m
    • Agregar a la lista

    Afinação da cifra

    Afinador online

      Ops (: Contenido disponible solo en portugués.
      OK