Cifra Club

Path

Apocalyptica

Cifrado: Principal (guitarra y guitarra eléctrica)
Selo Cifra Club: esta cifra foi revisada para atender aos critérios oficiais da nossa Equipe de Qualidade.
tono: Em
E|-----------------|-----------------|-----------------|-----------------|-3----|
B|-----------------|-----------------|-----------------|-1---------------|-3----|
G|-0---------------|-2---------------|-3---------------|-----------------|------|
D|-----------------|-----------------|-----------------|-------------0---|------|
A|-----------------|-----------------|-----------1-----|-3-----3-3-------|------|

E|-------------|-5---------------|-6---------------|-8------------------|-8-----|
B|-------------|-3---------------|-4---------------|--------------------|-------|
G|-------------|-----------------|-------------3---|-10-------------0---|-9-----|
D|-------------|-----------------|-----------------|--------------------|-------|
A|-------------|-----------------|-6-----6-6-------|--------------------|-------|
E|---5-5---0---|-5-----5-5---0---|-----------------|-10-----10-10-------|-10----|

E|-------------|-10----------------|-----------------|-----------------|--------|
B|-------------|-10----------------|-----------------|-----------------|--------|
G|-----------0-|-------------------|-----------------|-----------------|--------|
D|-------------|-0-----0-0-----0---|-5-5-5-5-5-5-5-5-|-5-5-5-5-5-5-5-5-|-1-1----|
A|-------------|-------------0-----|-5-5-5-5-5-5-5-5-|-5-5-5-5-5-5-5-5-|-1-1----|
E|---10-10-----|-------------------|-5-5-5-5-5-5-5-5-|-5-5-5-5-5-5-5-5-|-1-1----|
Otros videos de esta canción
    43 exhibiciones
      • ½ Tono
      • Am
      • Bbm
      • Bm
      • Cm
      • C#m
      • Dm
      • Ebm
      • Em
      • Fm
      • F#m
      • Gm
      • G#m
    • Agregar a la lista

    Afinación de cifrado

    Afinador online

      OK