Cifra Club

Quutamo

Apocalyptica

Cifrado: Principal (guitarra y guitarra eléctrica)
Selo Cifra Club: esta cifra foi revisada para atender aos critérios oficiais da nossa Equipe de Qualidade.
tono: C#m
E|-------------------------------------------------------------------|
B|-------------------------------------------------------------------|
G|--7p5-7p5-7p5-7p5-7p5-7p5-7p5-7p5-6p4-6p4-6p4-6p4-6p4-6p4-6p4-6p4--|
D|-------------------------------------------------------------------|
A|-------------------------------------------------------------------|
E|-------------------------------------------------------------------|


  1
E|-------------------------------------------------------------------| x4
B|-------------------------------------------------------------------|
G|--7p5-7p5-7p5-7p5-7p5-7p5-7p5-7p5-6p4-6p4-6p4-6p4-6p4-6p4-6p4-6p4--|
D|-------------------------------------------------------------------|
A|-------------------------------------------------------------------|
E|-------------------------------------------------------------------|
 |2
E|-----------------------------------------------------------------------| x2
B|-----------------------------------------------------------------------|
G|-----------------------------------------------------------------------|
D|-----------------------------------------------------------------------|
A|--9999999999999999-7777777777777777-5555555555555555-4444444444444444--|
E|--9999999999999999-7777777777777777-5555555555555555-4444444444444444--|
    ................ ................ ................ ................


E|----------------------------------------------------------------------|
B|----------------------------------------------------------------------|
G|--4-7--6-6~--4-4~----6-7-9~-7-6~--7-7~-6--7-6-4~--2-4~--6--7-9~-7-9~--|
D|----------------------------------------------------------------------|
A|----------------------------------------------------------------------|
E|----------------------------------------------------------------------|


  1
E|-----------------------------------7-7~-5-7-10-9~--7-9~--10-12~-10-9~--|
B|--7-7~-5-7-10-9~--7-8~--7-8-7-5~---------------------------------------|
G|-----------------------------------------------------------------------|
D|-----------------------------------------------------------------------|
A|-----------------------------------------------------------------------|
E|-----------------------------------------------------------------------|
 |2
E|-----------------------------------------------------------------------|
B|-----------------------------------------------------------------------|
G|-----------------------------------------------------------------------|
D|-----------------------------------------------------------------------|
A|-----------------------------------------------------------------------|
E|--9999999999999999-7777777777777777-5555555555555555-4444444444444444--|
    ................ ................ ................ ................


  1
E|--7-14-12-9-9--7~---9~-10~-14-12~-10-9~--| x2
B|-----------------------------------------|
G|-----------------------------------------|
D|-----------------------------------------|
A|-----------------------------------------|
E|-----------------------------------------|
 |2
E|---------------------------------------| x2
B|---------------------------------------|
G|--4-11--9--6-6--4~--6-7~--11-9~--7-6~--|
D|---------------------------------------|
A|---------------------------------------|
E|---------------------------------------|
 |3
E|-------------------------------------------------------------------| x4
B|-------------------------------------------------------------------|
G|--7p5-7p5-7p5-7p5-7p5-7p5-7p5-7p5-6p4-6p4-6p4-6p4-6p4-6p4-6p4-6p4--|
D|-------------------------------------------------------------------|
A|-------------------------------------------------------------------|
E|-------------------------------------------------------------------|
 |4
E|-----------------------------------------------------------------------| x2
B|-----------------------------------------------------------------------|
G|-----------------------------------------------------------------------|
D|-----------------------------------------------------------------------|
A|--9999999999999999-7777777777777777-5555555555555555-4444444444444444--|
E|--9999999999999999-7777777777777777-5555555555555555-4444444444444444--|
    ................ ................ ................ ................


  1
E|--10~--9-10-12~--10-9-10~--9-10-12~--10-9--|
B|-------------------------------------------|
G|-------------------------------------------|
D|-------------------------------------------|
A|-------------------------------------------|
E|-------------------------------------------|
 |2
E|----------------------------------------|
B|----------------------------------------|
G|--7~---6-7-9~---7-6-7~---6-7-6~---4--2--|
D|----------------------------------------|
A|----------------------------------------|
E|----------------------------------------|
 |3
E|----------------------|
B|----------------------|
G|----------------------|
D|--5~---4~---5~---4~---|
A|--5~---4~---5~---4~---|
E|--5~---4~---5~---4~---|


  1
E|-------------------------------------------------------------------| x4
B|-------------------------------------------------------------------|
G|--7p5-7p5-7p5-7p5-7p5-7p5-7p5-7p5-6p4-6p4-6p4-6p4-6p4-6p4-6p4-6p4--|
D|-------------------------------------------------------------------|
A|-------------------------------------------------------------------|
E|-------------------------------------------------------------------|
 |2
E|-----------------------------------------------------------------------| x2
B|-----------------------------------------------------------------------|
G|-----------------------------------------------------------------------|
D|-----------------------------------------------------------------------|
A|--9999999999999999-7777777777777777-5555555555555555-4444444444444444--|
E|--9999999999999999-7777777777777777-5555555555555555-4444444444444444--|
    ................ ................ ................ ................


this part is very soft, so pick/press gently, and slightly muffle if needed
  1
E|--------------------------------------------------------------|
B|--------------------------------------------------------------|
G|--------------------------------------------------------------|
D|--10-10-10-10-14-14-12-10-12x8---10-10-10-10-14-14-12-10-9x8--|
A|--------------------------------------------------------------|
E|--------------------------------------------------------------|
 |2
E|-------------------------------------------| x4
B|-------------------------------------------|
G|-------------------------------------------|
D|--11p9-11p9-11p9-11p9-11p9-11p9-11p9-11p9--|
A|-------------------------------------------|
E|-------------------------------------------|


  1
E|---------------------------------------------------------|
B|---------------------------------------------------------|
G|---------------------------------------------------------|
D|--10-10-10-10-14-14-12-10-9x8---10-10-10-10-12-12-14-14--|
A|---------------------------------------------------------|
E|---------------------------------------------------------|
 |2
E|-------------------------------------------| x3
B|-------------------------------------------|
G|-------------------------------------------|
D|--11p9-11p9-11p9-11p9-11p9-11p9-11p9-11p9--|
A|-------------------------------------------|
E|-------------------------------------------|


  1
E|------------------------------------------------------------------------------|
B|------------------------------------------------------------------------------|
G|------------------------------------------------------------------------------|
D|------------------------------------------------------------------------------|
A|------------------------------------------------------------------------------|
E|--9-12-11-11--9-9---11-12-14--12-11---12-12-11-12-11-9--7-9--11-12-14--12-14--|


  1
E|-----------------------------------7-7~-5-7-10-9~--7-9~--10-12~-10-9~--|
B|--7-7~-5-7-10-9~--7-8~--7-8-7-5~---------------------------------------|
G|-----------------------------------------------------------------------|
D|-----------------------------------------------------------------------|
A|-----------------------------------------------------------------------|
E|-----------------------------------------------------------------------|
 |2
E|-----------------------------------------| x4
B|-----------------------------------------|
G|--5h7-5h7---5h7-5h7---4h6-4h6---4h6-4h6--|
D|-----------------------------------------|
A|-----------------------------------------|
E|-----------------------------------------|
 |3
E|-----------------------------------------------------------------------------------------------|
B|-----------------------------------------------------------------------------------------------|
G|-----------------------------------------------------------------------------------------------|
D|-----------------------------------------------------------------------------------------------|
A|-----------------------------------------------------------------------------------------------|
c|99-99-99-99-77-77-77-77-55-55-55-55-77-77-77-77-99-99-99-99-77-77-77-77-55-55-55-55-99-99-99-99|
  .. .. .. .. .. .. .. .. .. .. .. .. .. .. .. .. .. .. .. .. .. .. .. .. .. .. .. .. .. .. .. .. 


  1
E|--7-14-12-9-9--7~---9~-10~-14-12~-10-9~--| x4
B|-----------------------------------------|
G|-----------------------------------------|
D|-----------------------------------------|
A|-----------------------------------------|
E|-----------------------------------------|
 |2
E|---------------------------------------| x4
B|---------------------------------------|
G|--4-11--9--6-6--4~--6-7~--11-9~--7-6~--|
D|---------------------------------------|
A|---------------------------------------|
E|---------------------------------------|
 |3
E|-------------------------------------------------------------------| x8
B|-------------------------------------------------------------------|
G|--7p5-7p5-7p5-7p5-7p5-7p5-7p5-7p5-6p4-6p4-6p4-6p4-6p4-6p4-6p4-6p4--|
D|-------------------------------------------------------------------|
A|-------------------------------------------------------------------|
E|-------------------------------------------------------------------|
 |4
E|-----------------------------------------------------------------------| x4
B|-----------------------------------------------------------------------|
G|-----------------------------------------------------------------------|
D|-----------------------------------------------------------------------|
A|--9999999999999999-7777777777777777-5555555555555555-4444444444444444--|
E|--9999999999999999-7777777777777777-5555555555555555-4444444444444444--|
    ................ ................ ................ ................


  1
E|--10~--9-10-12~--10-9-10~--9-10-12~--10-9--|
B|-------------------------------------------|
G|-------------------------------------------|
D|-------------------------------------------|
A|-------------------------------------------|
E|-------------------------------------------|
 |2
E|----------------------------------------|
B|----------------------------------------|
G|--7~---6-7-9~---7-6-7~---6-7-6~---4--2--|
D|----------------------------------------|
A|----------------------------------------|
E|----------------------------------------|
 |3
E|----------------------|
B|----------------------|
G|----------------------|
D|--5~---4~---5~---4~---|
A|--5~---4~---5~---4~---|
E|--5~---4~---5~---4~---|
Otros videos de esta canción
    22 exhibiciones
      • ½ Tono
      • Am
      • Bbm
      • Bm
      • Cm
      • C#m
      • Dm
      • Ebm
      • Em
      • Fm
      • F#m
      • Gm
      • G#m
    • Agregar a la lista

    Afinação da cifra

    Afinador online

      Ops (: Contenido disponible solo en portugués.
      OK