Cifra Club

Rise

Apocalyptica

Cifrado: Principal (guitarra y guitarra eléctrica)
Selo Cifra Club: esta cifra foi revisada para atender aos critérios oficiais da nossa Equipe de Qualidade.
tono: Am
E|---------------------------------------------------------|
B|-5-7-9-5-7-9-5-7-9-5-7-9-----------7-9---7-9---7-9---7-9-|
G|---------------------------------9-----9-----9-----9-----|
D|---------------------------------------------------------|
A|---------------------------------------------------------|
E|---------------------------------------------------------|

PM..........................................................
E|---------------------------------------------------------|
B|---7-9---7-9---7-9---7-9---------0-7-9-0-7-9-0-7-9-0-7-9-|
G|-7-----7-----7-----7-------------------------------------|
D|---------------------------------------------------------|
A|---------------------------------------------------------|
E|---------------------------------------------------------|

[Verse 1]
E|-----------------------------------------------------------------------------------------------|
B|-----------------------------------------------------------------------------------------------|
G|-----------------------------------------------------------------------------------------------|
D|-----------------------------------------------------------------------------------------------|
A|---------7-7---5---5-----7----------------5-5---7---5------------------------------------------|
E|---------------------8----------------------------------8-7---8---5--------------5-----7-----3-|

E|------------------------------------------------------------------------------------------------|
B|------------------------------------------------------------------------------------------------|
G|------------------------------------------------------------------------------------------------|
D|------------------------------------------------------------------------------------------------|
A|---------7-7---5---5-3---/10--------------5-5---7---5--------------------------5---7---5---5-/10|
E|--------------------------------------------------------8-7---8---8--------8--------------------|

[Pre-Chorus]
E|------------------------------------------------------------------------------------------------|
B|------------------------------------------------8-8-8---10-10-10---12---10----------------8-----|
G|--------------------------------7-7-7---9-9-9---------------------------------------------------|
D|-----7-7-7---9-9-9---10-10-10-------------------------------------------------------------------|
A|------------------------------------------------------------------------------------------------|
E|------------------------------------------------------------------------------------------------|

E|---------------------------------------------------------------------------------------------------------|
B|------------------------8-8-8---10-10-10---12-12-12---13-13-13---/15---13---10---13--------12------------|
G|-----9-9-9---10-10-10--------------------------------------------------------------------------------9---|
D|---------------------------------------------------------------------------------------------------------|
A|---------------------------------------------------------------------------------------------------------|
E|---------------------------------------------------------------------------------------------------------|

[Chorus]
E|-----------------------------------------------------------------------------------------------------------|
B|-----------------10---12---13----------------10---12---13---13------12---12-----12---13---15---13---12---13|
G|-10---------10------------------9--------------------------------------------------------------------------|
D|-----------------------------------------------------------------------------------------------------------|
A|-----------------------------------------------------------------------------------------------------------|
E|-----------------------------------------------------------------------------------------------------------|

E|----------------------------------------------------------------------------------------------------------|
B|----------------10---12---13------------------------------------------------------------------------------|
G|-10--------10------------------9-------------9---7---9---9------------------------------------------------|
D|----------------------------------------------------------------12---12------9---10---12------10---9---7--|
A|----------------------------------------------------------------------------------------------------------|
E|----------------------------------------------------------------------------------------------------------|

[Verse 2]
E|----------------------------------------------------------------------------------------------------------|
B|----------------------------------------------------------------------------------------------------------|
G|---------9-9---7---7------9---------------7-7---9---7---5-4---5---5---------7---9---9---------9---/12-----|
D|---------------------10-----------------------------------------------------------------------------------|
A|----------------------------------------------------------------------------------------------------------|
E|----------------------------------------------------------------------------------------------------------|

E|----------------------------------------------------------------------------------------------------------|
B|--------10-10---12---12-13---13-----------12-12---13---12-----------13------10----------------------------|
G|------------------------------------------------------------12-12-------------------12---7---9------------|
D|----------------------------------------------------------------------------------------------------------|
A|----------------------------------------------------------------------------------------------------------|
E|----------------------------------------------------------------------------------------------------------|

[Pre-Chorus 2]
E|---------------------------------------------------------------------------------------------------|
B|------------------------------------------------8-8-8---10-10-10---12---10--------(5)--------8-----|
G|--------------------------------7-7-7---9-9-9------------------------------------------------------|
D|-----7-7-7---9-9-9---10-10-10----------------------------------------------------------------------|
A|---------------------------------------------------------------------------------------------------|
E|---------------------------------------------------------------------------------------------------|

E|----------------------------------------------------------------------------------------------------------|
B|--------------------------------8-8-8---10-10-10---12-12-12---13-13-13---15---13--------12---10---12---13-|
G|----------------------------------------------------------------------------------------------------------|
D|-----7-7-7---9-9-9---10-10-10-----------------------------------------------------------------------------|
A|----------------------------------------------------------------------------------------------------------|
E|----------------------------------------------------------------------------------------------------------|

E|-----------------------------------------------------------------------------------------------------------|
B|----------------8-8-8---10-10-10---12-12-12---13-13-13---15-15-15---/17---15---13---13------15------17-----|
G|-----10-10-10--------------------------------------------------------------------------------------------9-|
D|-----------------------------------------------------------------------------------------------------------|
A|-----------------------------------------------------------------------------------------------------------|
E|-----------------------------------------------------------------------------------------------------------|

[Chorus 2]
E|-----------------------------------------------------------------------------------------------------------|
B|-----------------10---12---13---------------10---12---13---13------12---12------12---13---15---13---12---13|
G|-10---------10------------------9--------------------------------------------------------------------------|
D|-----------------------------------------------------------------------------------------------------------|
A|-----------------------------------------------------------------------------------------------------------|
E|-----------------------------------------------------------------------------------------------------------|

E|----------------------------------------------------------------------------------------------------------|
B|----------------10---12--/17---13------------13---15---17-17------15-15------12---13---15---13---12---13--|
G|-10--------10---------------------------------------------------------------------------------------------|
D|----------------------------------------------------------------------------------------------------------|
A|----------------------------------------------------------------------------------------------------------|
E|----------------------------------------------------------------------------------------------------------|

[Bridge]
e|-------------------------------------------------------------------------------------------------|
B|----------/13------13---12---10---12---10--------------------------------------------------------|
G|--10----------------------------------------9-------7---7/9---12------12---10---9---10------12---|
D|-------------------------------------------------------------------------------------------------|
a|-------------------------------------------------------------------------------------------------|
e|-------------------------------------------------------------------------------------------------|

E|---------------------------------------------------------------------------------------------------|
B|--10------/13------13---12---10---12---10------------------------------------------10------10-12---|
G|--------------------------------------------9-------7---7/9---12------12---12---12-----------------|
D|---------------------------------------------------------------------------------------------------|
A|---------------------------------------------------------------------------------------------------|
E|---------------------------------------------------------------------------------------------------|

[That Epic Peak]
Repeat the following 4 times: 
e|-------------------------------------------------------------------------------------------------|
b|-15-15-15-15-15-15-15-15-15-15-15-15-15-15-15-15-15-15-15-15-15-15-15-15-15-15-15-15-15-15-15-15-|
g|-------------------------------------------------------------------------------------------------|
d|-12-12-12-12-12-12-12-12-12-12-12-12-12-12-12-12-12-12-12-12-12-12-12-12-12-12-12-12-12-12-12-12-|
a|-------------------------------------------------------------------------------------------------|
e|-------------------------------------------------------------------------------------------------|

e|-------------------------------------------------------------------------------------------------|
b|-12-12-12-12-12-12-12-12-12-12-12-12-12-12-12-12-12-12-12-12-12-12-12-12-12-12-12-12-12-12-12-12-|
G|-------------------------------------------------------------------------------------------------|
D|--9--9--9--9--9--9--9--9--9--9--9--9--9--9--9--9--9--9--9--9--9--9--9--9--9--9--9--9--9--9--9--9-|
A|-------------------------------------------------------------------------------------------------|
E|-------------------------------------------------------------------------------------------------|

[Outro]
After repeating the above, a small break before the outro:
E|-----------------------------------------------------------------------------------------------|
B|-----------------------------------------------------------------------------------------------|
G|-----------------------------------------------------------------------------------------------|
D|-----------------------------------------------------------------------------------------------|
A|---------7-7---5---5-----7----------------5-5---7---5------------------------------------------|
E|---------------------8----------------------------------8-7---8---5--------------5-----7-----3-|
Otros videos de esta canción
    5 exhibiciones
      • ½ Tono
      • Am
      • Bbm
      • Bm
      • Cm
      • C#m
      • Dm
      • Ebm
      • Em
      • Fm
      • F#m
      • Gm
      • G#m
    • Agregar a la lista

    Afinação da cifra

    Afinador online

      Ops (: Contenido disponible solo en portugués.
      OK