Cifra Club

Ruska

Apocalyptica

Cifrado: Principal (guitarra y guitarra eléctrica)
Selo Cifra Club: esta cifra foi revisada para atender aos critérios oficiais da nossa Equipe de Qualidade.
tono: E
E|E|-------------------------------------------------------------------------------||
                             RUSKA (piano section for guitar) - Apocalyptica
E|E|-------------------------------------------------------------------------------||
Tabbed by: Todd Hailey

Tuning: Standard E        
         
Note:     This song was recorded/made on Piano, so some notes tab'd here can be played if wanted, but don't have to be.

                                        VERSE
e||E|E|-------------------------------------------------------------------------------||-----|
B||oE|E|-------------------------------------------------------------------------------||----|
G||E|E|-------------------------------------------------------------------------------||-----|
D||o--6-----6-----6---8---6-----6-----6---8---6-----6-----6---8---6-----6-----6---8----|
A||----7-7---7-7---7---7---7-7---7-7---7---7---6-6---6-6---6---6---6-6---6-6---6---6---|
E||E|E|-------------------------------------------------------------------------------||-----|

e|E|E|-------------------------------------------------------------------------------||----||
B|E|E|-------------------------------------------------------------------------------||---o||
G|E|E|-------------------------------------------------------------------------------||----||x2
D|--6-----6-----6---8---6-----6-----6---8---9-----9-----9---9---9-----9-----9---9---o||
A|----7-7---7-7---7---7---7-7---7-7---7---7---6-6---6-6---6---6---6-6---6-6---6---6--||
E|E|E|-------------------------------------------------------------------------------||----||
 


                                       PD-C HORUS
e|E|E|-------------------------------------------------------------------------------||-----|
B|E|E|-------------------------------------------------------------------------------||-----|
G|----------------------9-----9-----9---9---------------------------------------------|
D|--6-----6-----6---8-----------------------8-----8-----8---8---9-----9-----8---8-----|
A|-----------------------7-7---7-7---7---7---6-6---6-6---6---6---6-6---6-6---6---6----|
E|----9-9---9-9---9---9---------------------------------------------------------------|

e|E|E|-------------------------------------------------------------------------------||-----|
B|E|E|-------------------------------------------------------------------------------||-----|
G|----------------------9-----9-----9---9-----------------------8-----8-----8---8-----|
D|--6-----6-----6---8-----------------------8-----8-----8---8-------------------------|
A|------------------------7-7---7-7---7---7---6-6---6-6---6---6---6-6---6-6---6---6---|
E|----9-9---9-9---9---9---------------------------------------------------------------|



                                        CHORUS
e||E|E|-------------------------------------------------------------------------------||-----|
B||oE|E|-------------------------------------------------------------------------------||----|
G||--8-----8-----8---8---6-----6-------------------------------------------------------|
D||o----------------------------------9---9---9-----9-----9---9---8-----8-----6---6----|
A||E|E|-------------------------------------------------------------------------------||-----|
E||----4-4---4-4---4---4---4-4---4-4---4---4---7-7---7-7---7---7---7-7---7-7---7---7---|

e|E|E|-------------------------------------------------------------------------------||----||
B|E|E|-------------------------------------------------------------------------------||---o||
G|E|E|-------------------------------------------------------------------------------||----||x2
D|-8-----8-----8---8---4-----4-----8---8---6-----6-----6---6---6-----6-----6---6----o||
A|-------------------------------------------7-7---7-7---7---7---7-7---7-7---7---7---||
E|---6-6---6-6---6---6---2-2---2-2---6---6-------------------------------------------||

                                          BRIDGE
e|E|E|-------------------------------------------------------------------------------||-----|
B|E|E|-------------------------------------------------------------------------------||-----|
G|E|E|-------------------------------------------------------------------------------||-----|
D|--6-----6-----6---8---6-----6-----6---8---9-----9-----9---9---9-----6-----6---9-----|
A|----7-7---7-7---7---7---7-7---7-7---7---7---6-6---6-6---6---6---6-6---6-6---6---6---|
E|E|E|-------------------------------------------------------------------------------||-----|

e|E|E|-------------------------------------------------------------------------------||-----|
B|E|E|-------------------------------------------------------------------------------||-----|
G|E|E|-------------------------------------------------------------------------------||-----|
D|--6-----6-----6---8---6-----6-----6---8---9-----9-----9---9---9-----9-----9---9-----|
A|----7-7---7-7---7---7---7-7---7-7---7---7---6-6---6-6---6---6---6-6---6-6---6---6---|
E|E|E|-------------------------------------------------------------------------------||-----|

e|E|E|-------------------------------------------------------------------------------||-----|
B|E|E|-------------------------------------------------------------------------------||-----|
G|----------------------9-----9-----9---9----------------------(8)---(8)---(8)-(8)----|
D|--6-----6-----6---8-----------------------6-----6-----6---6---5-----5-----5---5-----|
A|------------------------7-7---7-7---7---7---6-6---6-6---6---6---6-6---6-6---6---6---|
E|----9-9---9-9---9---9---------------------------------------------------------------|
Otros videos de esta canción
    20 exhibiciones
      • ½ Tono
      • A
      • Bb
      • B
      • C
      • Db
      • D
      • Eb
      • E
      • F
      • F#
      • G
      • Ab
    • Agregar a la lista

    Afinación de cifrado

    Afinador online

      OK