Cifra Club

Somewhere Around Nothing

Apocalyptica

Cifrado: Principal (guitarra y guitarra eléctrica)
Selo Cifra Club: esta cifra foi revisada para atender aos critérios oficiais da nossa Equipe de Qualidade.
tono: D
Aí embaixo está toda a cifra, é só pegar o ritmo.


INTRO:
e|---------------------------------------------------------------------------|     (x2)
B|---------------------------------------------------------------------------|
G|-------------------------------5-5-5-5-5-5-5-5-5-5---7---------------------|
D|-----7-7-7-7-7-7-7-7-7-7---3---5-5-5-5-5-5-5-5-5-5---7---7-----------------|
A|-----7-7-7-7-7-7-7-7-7-7---3---3-3-3-3-3-3-3-3-3-3---5---7-----------------|   
E|-----5-5-5-5-5-5-5-5-5-5---1-----------------------------5-----------------|

RIFF 1:
e|---------------------------------|-----------------------------------------|     
B|---------------------------------|-----------------------------------------|
G|-----------------------5---7-----|-------------------------5----3----------|
D|-----------------------5---7-----|-------------------------5----3----------|
A|---3-5-5---3-5-5-6-8---3---5-----|---3-5-5---3-5-5-5-3-2---3----1----------|   
E|---------------------------------|-----------------------------------------|

RIFF 2:
e|---------------------------------|-----------------------------------------|     
B|---------------------------------|-----------------------------------------|
G|-----------------------5---7-----|--------------------------7---5----------|
D|-----------------------5---7-----|--------------------------7---5----------|
A|---3-5-5---3-5-5-6-8---3---5-----|---6-8-8---6-8-8-9-11-6---5---3----------|
E|---------------------------------|-----------------------------------------|

PONTE:

e|---------------------------------------------------------------------------|     
B|---------------------------------------------------------------------------|
G|---------------------------------------------------------------------------|
D|---------------------------------------------------------------------------|
A|---3-5-5-6-5-6-6-5-3---3-5-5-6-5-6-6-8-10---10-8-8-10---8-6-8-6---6-8-10-11-10-13-14-13-14-16--|   
E|---------------------------------------------------------------------------|

REFRÃO:

e|---------------------------------------------------------------------------|     
B|---------------------------------------------------------------------------|
G|---------------------------------------------------------------------------|
D|---------------------------------------------------------------------------|
A|---5-7-8-7-8-10-12-13-12-8-7-8-7-5-3-----5-7-8-7-8-10-12-15-17-19-20-19----|   
E|---------------------------------------------------------------------------|

Repetir:
(INTRO) (1x)
(RIFF 1) (1x)
(RIFF 2) (1x)
(PONTE) (1x)
(REFRÃO) (1x)



RIFF 3:

e|---------------------------------------------------------------------------|     
B|---------------------------------------------------------------------------|
G|---------------------------------------------------------------------------|
D|----7-6-7-6-9---7-6-7-6-9---7-6-4---12-11-9--------------------------------|
A|---------------------------------------------------------------------------| 
E|---------------------------------------------------------------------------|

RIFF 4:

e|---------------------------------------------------------------------------|     
B|---------------------------------------------------------------------------|
G|---------------------------------------------------------------------------|
D|---7-6-7-6-9---7-6-7-6-9---7-6-4-12-13-------------------------------------|
A|---------------------------------------------------------------------------| 
E|---------------------------------------------------------------------------|

(REFRÃO) (2x)

RIFF 5:

e|---------------------------------------------------------------------------|     
B|---------------------------------------------------------------------------|
G|---------------------------------------------------------------------------|
D|---7-6-7-6-9---7-6-7-6-9---7-6-4---12-11-10-9-7-6-5------------------------|
A|---------------------------------------------------------------------------| 
E|---------------------------------------------------------------------------|

FIM
Otros videos de esta canción
    4.127 exhibiciones
      • ½ Tono
      • A
      • Bb
      • B
      • C
      • Db
      • D
      • Eb
      • E
      • F
      • F#
      • G
      • Ab
    • Agregar a la lista

    Afinación de cifrado

    Afinador online

      OK