Cifra Club

Worlds Collide

Apocalyptica

Cifrado: Principal (guitarra y guitarra eléctrica)
Selo Cifra Club: esta cifra foi revisada para atender aos critérios oficiais da nossa Equipe de Qualidade.
tono: Cm
INTRO
bass
E|-------------------| repeat until main riff
B|-------------------|
G|-------------------|
D|-------------------|
A|-------------------|
E|--0-0-0-0-0-0-0-0--|



  guitar 1
E|--11--10--8--6---4-----------15--13--11--10------8------|
B|--------------------------------------------------------|
G|--------------------------------------------------------|
D|--------------------------------------------------------|
A|--------------------------------------------------------|
E|--------------------------------------------------------|
 |guitar 2
E|--------------------------------------------------------|
B|--------------------------------------------------------|
G|--------------------------------------------------------|
D|--------------------------------------------------------|
A|---------------------3---5-------6-------8---10-----11--|
E|--------------------------------------------------------|



  guitar 1
E|--15--13--11------10--------8---15--13--11--13--|
B|------------------------------------------------|
G|------------------------------------------------|
D|------------------------------------------------|
A|------------------------------------------------|
E|------------------------------------------------|
 |guitar 2
E|------------------------------------------------|
B|------------------------------------------------|
G|------------------------------------------------|
D|------------------------------------------------|
A|--------------10------8--8--6---10------13------|
E|------------------------------------------------|



MAIN RIFF
  guitar 
E|-------------------------------------------| x4
B|-------------------------------------------|
G|-------------------------------------------|
D|--0-0-0-0-6---0-5---0-3---0-4---0-4-4-4-4--|
A|--0-0-0-0-6---0-5---0-3---0-4---0-4-4-4-4--|
E|--0-0-0-0-6---0-5---0-3---0-4---0-4-4-4-4--|
 |bass
E|-------------------------------------------| x4
B|-------------------------------------------|
G|-------------------------------------------|
D|-------------------------------------------|
A|-------------------------------------------|
E|--0-0-0-0-6---0-5---0-3---0-4---0-4-4-4-4--|



  guitar
E|----------------------------------------------------| x4
B|----------------------------------------------------|
G|----------------------------------------------------|
D|----------------------------------------------------|
A|--0-6-5-3-5---0-6-5-3-5---0-8-7-5-7---0-8-7-10-9-7--|
E|----------------------------------------------------|
 |bass (first 3 times only)
E|----------------------------------------------------| x3
B|----------------------------------------------------|
G|----------------------------------------------------|
D|----------------------------------------------------|
A|----------------------------------------------------|
E|--0-0-0-0-0---0-0-0-0-0---3-3-3-3-3---3-3-3-5--5-5--|
 |bass (4th time only)
E|----------------------------------------------------|
B|----------------------------------------------------|
G|----------------------------------------------------|
D|----------------------------------------------------|
A|----------------------------------------------------|
E|--5-5-5-5-5---5-5-5-5-5---3-3-3-3-3---3-3-3-5--5-5--|



  guitar
E|-----------------------------------|
B|-----------------------------------|
G|-----------------------------------|
D|-----------------------------------|
A|-----------------------------------|
E|--0-0-0-0-0---0-0-0-0-0---0-0-0-0--|
 |bass
E|-----------------------------------|
B|-----------------------------------|
G|-----------------------------------|
D|-----------------------------------|
A|-----------------------------------|
E|--0-0-0-0-0---0-0-0-0-0---0-0-0-0--|



VERSE
  guitar
E|---------------------------------------------|
B|---------------------------------------------|
G|---------------------------------------------|
D|------0---0-0-1----3-1-0------0---------0-1--|
A|--3-3---3--------3--------3-3---3-1-3--------|
E|---------------------------------------------|

  guitar
E|------------------------------------------------|
B|------------------------------------------------|
G|------------------------------------------------|
D|--4-4-3-4-1--4-3-6-4-3-3--1--0-----3--1--1---0--|
A|--------------------------------3---------------|
E|------------------------------------------------|



CHORUS
  guitar
E|-------------------------------------------| x4
B|-------------------------------------------|
G|-------------------------------------------|
D|--0-0-0-0-6---0-5---0-3---0-4---0-4-4-4-4--|
A|--0-0-0-0-6---0-5---0-3---0-4---0-4-4-4-4--|
E|--0-0-0-0-6---0-5---0-3---0-4---0-4-4-4-4--|
 |bass
E|-------------------------------------------| x4
B|-------------------------------------------|
G|-------------------------------------------|
D|-------------------------------------------|
A|-------------------------------------------|
E|--0-0-0-0-6---0-5---0-3---0-4---0-4-4-4-4--|



  guitar
E|----------------------------------------------------| x3
B|----------------------------------------------------|
G|----------------------------------------------------|
D|----------------------------------------------------|
A|--0-6-5-3-5---0-6-5-3-5---0-8-7-5-7---0-8-7-10-9-7--|
E|----------------------------------------------------|
 |bass
E|----------------------------------------------------| x3
B|----------------------------------------------------|
G|----------------------------------------------------|
D|----------------------------------------------------|
A|----------------------------------------------------|
E|--0-0-0-0-0---0-0-0-0-0---3-3-3-3-3---3-3-3-5--5-5--|



  guitar
E|---------------------------------------------------|
B|---------------------------------------------------|
G|---------------------------------------------------|
D|---------------------------------------------------|
A|--0-6-5-3-5---0-6-5-3-5---0-8-7-5-7---0-8-7-5-7-8--|
E|---------------------------------------------------|
 |bass
E|---------------------------------------------------|
B|---------------------------------------------------|
G|---------------------------------------------------|
D|---------------------------------------------------|
A|---------------------------------------------------|
E|--5-5-5-5-5---5-5-5-5-5---7-7-7-7-7---7-7-7-7-7-7--|



  guitar
E|----------------------------------------------------------------------------------|
B|----------------------------------------------------------------------------------|
G|----------------------------------------------------------------------------------|
D|--5-7-5-8-7-5--7-5-8-7-5--7-9-7-10-9-7--9-7-10-9-7--8-10-8-11-10-8--10-8-11-10-8--|
A|----------------------------------------------------------------------------------|
E|----------------------------------------------------------------------------------|
 |bass
E|----------------------------------------------------------------------------------|
B|----------------------------------------------------------------------------------|
G|----------------------------------------------------------------------------------|
D|----------------------------------------------------------------------------------|
A|----------------------------------------------------------------------------------|
E|--5-5-5-5-5-5--5-5-5-5-5--7-7-7-7--7-7--7-7-7--7-7--8-8--8-8--8--8--8--8-8--8--8--|



  guitar
E|------------------------------------------------------------------------------|
B|------------------------------------------------------------------------------|
G|------------------------------------------------------------------------------|
D|--7-9-7-10-9-7--9-7-10-9-7--5-7-5-8-7-5--7-5-8-7-5--7-9-7-10-9-7--9-7-10-9-7--|
A|------------------------------------------------------------------------------|
E|------------------------------------------------------------------------------|
 |bass
E|------------------------------------------------------------------------------|
B|------------------------------------------------------------------------------|
G|------------------------------------------------------------------------------|
D|------------------------------------------------------------------------------|
A|------------------------------------------------------------------------------|
E|--7-7-7-7--7-7--7-7-7--7-7--5-5-5-5-5-5--5-5-5-5-5--7-7-7-7--7-7--7-7-7--7-7--|



  guitar
E|------------------------------------------------------------------|
B|------------------------------------------------------------------|
G|------------------------------------------------------------------|
D|--8-10-8-11-10-8--10-8-11-10-8--7-9-7-10-9-7--9-7-10-9-7-0-0-0-0--|
A|---------------------------------------------------------0-0-0-0--|
E|---------------------------------------------------------0-0-0-0--|
 |bass
E|------------------------------------------------------------------|
B|------------------------------------------------------------------|
G|------------------------------------------------------------------|
D|------------------------------------------------------------------|
A|------------------------------------------------------------------|
E|--8-8--8-8--8--8--8--8-8--8--8--7-7-7-7--7-7--7-7-7--7-7-0-0-0-0--|



INTERLUDE
  guitar 1(palm mute entire part)
E|-------------------------------------------| x8
B|-------------------------------------------|
G|-------------------------------------------|
D|--------3-6-0-0-5-0-0-3-0-0-4-0-0-4-0-4-0--|
A|--0-3-5------------------------------------|
E|-------------------------------------------|
  guitar 2(palm mute entire part)
E|-------------------------------------------| x8
B|-------------------------------------------|
G|-------------------------------------------|
D|--------3-6---0-5---0-3---0-4---0-4---4----|
A|--0-3-5------------------------------------|
E|-------------------------------------------|
 |bass(mute entire part)
E|-------------------------------------------| x8
B|-------------------------------------------|
G|-------------------------------------------|
D|-------------------------------------------|
A|-------------------------------------------|
E|--0-0-0-0-6---0-5---0-3---0-4---0-4---4----|



CHORUS
  guitar
E|-------------------------------------------| x4
B|-------------------------------------------|
G|-------------------------------------------|
D|--0-0-0-0-6---0-5---0-3---0-4---0-4-4-4-4--|
A|--0-0-0-0-6---0-5---0-3---0-4---0-4-4-4-4--|
E|--0-0-0-0-6---0-5---0-3---0-4---0-4-4-4-4--|
 |bass
E|-------------------------------------------| x4
B|-------------------------------------------|
G|-------------------------------------------|
D|-------------------------------------------|
A|-------------------------------------------|
E|--0-0-0-0-6---0-5---0-3---0-4---0-4-4-4-4--|



  guitar
E|----------------------------------------------------| x4
B|----------------------------------------------------|
G|----------------------------------------------------|
D|----------------------------------------------------|
A|--0-6-5-3-5---0-6-5-3-5---0-8-7-5-7---0-8-7-10-9-7--|
E|----------------------------------------------------|
 |bass (first 3 times only)
E|----------------------------------------------------| x3
B|----------------------------------------------------|
G|----------------------------------------------------|
D|----------------------------------------------------|
A|----------------------------------------------------|
E|--0-0-0-0-0---0-0-0-0-0---3-3-3-3-3---3-3-3-5--5-5--|
 |bass (4th time only)
E|----------------------------------------------------|
B|----------------------------------------------------|
G|----------------------------------------------------|
D|----------------------------------------------------|
A|----------------------------------------------------|
E|--5-5-5-5-5---5-5-5-5-5---3-3-3-3-3---3-3-3-5--5-5--|



OUTRO
  guitar
E|-----------------------------------|
B|-----------------------------------|
G|-----------------------------------|
D|-----------------------------------|
A|-----------------------------------|
E|--0-0-0-0-0---0-0-0-0-0---0-0-0-0--|
 |bass
E|-----------------------------------|
B|-----------------------------------|
G|-----------------------------------|
D|-----------------------------------|
A|-----------------------------------|
E|--0-0-0-0-0---0-0-0-0-0---0-0-0-0--|
Otros videos de esta canción
    0 exhibiciones
      • ½ Tono
      • Am
      • Bbm
      • Bm
      • Cm
      • C#m
      • Dm
      • Ebm
      • Em
      • Fm
      • F#m
      • Gm
      • G#m
    • Agregar a la lista

    Afinação da cifra

    Afinador online

      Ops (: Contenido disponible solo en portugués.
      OK