Cifra Club

Barbie Girl

Aqua

Cifrado: Principal (guitarra y guitarra eléctrica)
Selo Cifra Club: esta cifra foi revisada para atender aos critérios oficiais da nossa Equipe de Qualidade.
tono: C#m
[Intro] C#m  F#m  B  E
        C#m  F#m  B4  B

- Hi, Barbie!
- Hi, Ken!)
- You wanna go for a ride?
- Sure, Ken!
- Jump in!

[Tab - Intro]

Parte 1 de 6 
   C#m  F#m  B   E   C#m F#m B4  B 
E|------------------------------------------|
B|-9----10---7---9---9---10--7---7----------|
G|-9----11---8---9---9---11--9---8----------|
D|-11---11---9---9---11--11--9---9----------|
A|------9--------7-------9------------------|
E|-9---------7-------9-------7---7----------|

Parte 2 de 6
   C#m  F#m  B   E   C#m F#m B4  B 
E|------------------------------------------|
B|-9----10---7---9---9---10--7---7----------|
G|-9----11---8---9---9---11--9---8----------|
D|-11---11---9---9---11--11--9---9----------|
A|------9--------7-------9------------------|
E|-9---------7-------9-------7---7----------|

Parte 3 de 6
   C#m            F#m
E|------------------------------------------|
B|-9---9---9------10----10--10--------------|
G|-9---9---9------11----11--11--------------|
D|-11--11--11-----11----11--11--------------|
A|----------------9-------------------------|
E|-9----------------------------------------|

Parte 4 de 6
   B              E
E|------------------------------------------|
B|-7---7---7------9-----9--9----------------|
G|-8---8---8------9-----9--9----------------|
D|-9---9---9------9-----9--9----------------|
A|----------------7-------------------------|
E|-7----------------------------------------|

Parte 5 de 6
   C#m            F#m
E|------------------------------------------|
B|-9---9---9------10----10--10--------------|
G|-9---9---9------11----11--11--------------|
D|-11--11--11-----11----11--11--------------|
A|----------------9-------------------------|
E|-9----------------------------------------|

Parte 6 de 6
   B4             B
E|------------------------------------------|
B|-7---7---7------7-----7--7----------------|
G|-9---9---9------8-----8--8----------------|
D|-9---9---9------9-----9--9----------------|
A|------------------------------------------|
E|-7--------------7-------------------------|

[Refrão]

[Tab - Refrão - 2x]

Parte 1 de 4
   C#m             F#m
E|-x-------x--------------------------------|
B|-x----9--x---9-------10-----10------------|
G|-x----9--x---9---11--11--11-11------------|
D|-11---11-11--11--11--11--11-11------------|
A|-11------11------9-------9----------------|
E|-9-------9-------x-------x----------------|
   .       .       .       .      

Parte 2 de 4
   B               E
E|-x-------x-------x-------x----------------|
B|-x----7--x---7---x---9---x--9-------------|
G|-x----8--x---8---9---9---9--9-------------|
D|-9----9--9---9---9---9---9--9-------------|
A|-9-------9-------7-------7----------------|
E|-7-------7-------x-------x----------------|
   .       .       .       .

Parte 3 de 4
   C#m             F#m
E|-x-------x--------------------------------|
B|-x----9--x---9-------10-----10------------|
G|-x----9--x---9---11--11--11-11------------|
D|-11---11-11--11--11--11--11-11------------|
A|-11------11------9-------9----------------|
E|-9-------9-------x-------x----------------|
   .       .       .       ,
Parte 4 de 4
   B4              B
E|-x-------x-------x-------x----------------|
B|-x----7--x---7---x---7---x--7-------------|
G|-9----9--x---9---8---8---8--8-------------|
D|-9----9--9---9---9---9---9--9-------------|
A|-9-------9-------9-------9----------------|
E|-7-------7-------7-------7----------------|

C#m           F#m 
I'm a Barbie Girl
B            E
In a Barbie World
C#m           F#m    B4  
    Life in plastic
         B
It's fantastic
 C#m              F#m
You can brush my hair
    B             E
Undress me everywhere
C#m       F#m  
    Imagination
 B4             B
Life is your creation

Come on, Barbie, let's go party!

C#m           F#m  
I'm a Barbie Girl
B            E
In a Barbie World
C#m           F#m    B4   
    Life in plastic
         B
It's fantastic
 C#m              F#m 
You can brush my hair
    B             E
Undress me everywhere
C#m       F#m   
    Imagination
 B4             B
Life is your creation

[Primeira Parte]

[Tab - Primeira Parte]

Parte 1 de 9
E|------------------------------------------|
B|------------------------------------------|
G|-9---9---9-----9--------------------------|
D|-11--11--11----11-------------------------|
A|-11--11--11----11-------------------------|
E|-9---9---9-----9--------------------------|
   .   .   .     .  

Parte 2 de 9
   C#m             
E|-x-------x--------------------------------|
B|-x----9--x---9-------9------9-------------|
G|-x----9--x---9-------9------9-------------|
D|-11---11-11--11--11--11--11-11------------|
A|-11------11------11------11---------------|
E|-9-------9-------9-------9----------------|
   .       .       .       .

Parte 3 de 9
   F#m
E|-x-------x--------------------------------|
B|-x----2--x---2-------2------2-------------|
G|-x----2--x---2-------2------2-------------|
D|-4----4--4---4---4---4---4--4-------------|
A|-4-------4-------4-------4----------------|
E|-2-------2-------2-------2----------------|
   .       .       .       .

Parte 4 de 9
   B               
E|-x-------x-------x-------x----------------|
B|-x----7--x---7---x----7--x--7-------------|
G|-x----8--x---8---x----8--x--8-------------|
D|-9----9--9---9---9----9--9--9-------------|
A|-9-------9-------9-------9----------------|
E|-7-------7-------7-------7----------------|
   .       .       .       .

Parte 5 de 9
   C#m             
E|-x-------x--------------------------------|
B|-x----9--x---9-------9------9-------------|
G|-x----9--x---9-------9------9-------------|
D|-11---11-11--11--11--11--11-11------------|
A|-11------11------11------11---------------|
E|-9-------9-------9-------9----------------|
   .       .       .       .

Parte 6 de 9
   C#m             
E|-x-------x--------------------------------|
B|-x----9--x---9-------9------9-------------|
G|-x----9--x---9-------9------9-------------|
D|-11---11-11--11--11--11--11-11------------|
A|-11------11------11------11---------------|
E|-9-------9-------9-------9----------------|
   .       .       .       .

Parte 7 de 9
   F#m
E|-x-------x--------------------------------|
B|-x----2--x---2-------2------2-------------|
G|-x----2--x---2-------2------2-------------|
D|-4----4--4---4---4---4---4--4-------------|
A|-4-------4-------4-------4----------------|
E|-2-------2-------2-------2----------------|
   .       .       .       .

Parte 8 de 9
   B               
E|-x-------x-------x-------x----------------|
B|-x----7--x---7---x----7--x--7-------------|
G|-x----8--x---8---x----8--x--8-------------|
D|-9----9--9---9---9----9--9--9-------------|
A|-9-------9-------9-------9----------------|
E|-7-------7-------7-------7----------------|
.       .       .       .

Parte 9 de 9
              
E|-x-------x--------------------------------|
B|-x----9--x---9-------9------9-------------|
G|-x----9--x---9-------9------9-------------|
D|-11---11-11--11--11--11--11-11------------|
A|-11------11------11------11---------------|
E|-9-------9-------9-------9----------------|

        C#m           
I'm a blond bimbo girl
      F#m 
In a fantasy world
         B                 
Dress me up, make it tight
          C#m
I'm your dolly
           C#m       
You're my doll, rock'n'roll
           F#m  
Feel the glamouring in pink
              B           
Kiss me here
                       C#m  
Touch me there, hanky-panky

[Segunda Parte]

[Tab - Segunda Parte]

Parte 1 de 4
   C#m         F#5
E|-x-------x--------------------------------|
B|-x----9--x-------x------------------------|
G|-x----9--x-------x-------x----------------|
D|-11---11-11--11--x--11---x-11-------------|
A|-11------11--9---x--9----x-9--------------|
E|-9-------9-------x-------x----------------|
      .       .       .       . 

 Parte 2 de  4
   B               E
E|-x-------x-------x-------x----------------|
B|-x----7--x-------x-------x----------------|
G|-x----8--x---9---x-------x----------------|
D|-9----9--9---9---x---9---x--9-------------|
A|-9-------9---7---x---7---x--7-------------|
E|-7-------7-------x-------x----------------|
.       .       .       .

Parte 3 de 4
   C#m         F#5
E|-x-------x--------------------------------|
B|-x----9--x-------x------------------------|
G|-x----9--x-------x-------x----------------|
D|-11---11-11--11--x--11---x-11-------------|
A|-11------11--9---x--9----x-9--------------|
E|-9-------9-------x-------x----------------|

Parte 4 de 4
   B4          B
E|-x-------x--------------------------------|
B|-x----7--x---7----------------------------|
G|-9----9--x---8----------------------------|
D|-9----9--9---9----------------------------|
A|-9-------9---9----------------------------|
E|-7-------7---7------7--4--7---------------|

         C#m   F#5  
You can touch
          B  E5
You can play
        C#m  
If you say
F#5         B4   B 
I'm always yours   (uh, oh)

[Refrão]

C#m           F#m  
I'm a Barbie Girl
B            E
In a Barbie World
C#m           F#m    B4   
    Life in plastic
      B
It's fantastic
 C#m              F#m 
You can brush my hair
    B             E
Undress me everywhere
C#m       F#m    
    Imagination
 B4             B
Life is your creation

[Terceira Parte]

[Tab - Terceira Parte - 4x]

Parte 1 de  2
   A           B
E|-x-------x-------x-------x----------------|
B|-x----5--x-------x---7---x---7------------|
G|-x----6--x---8---x---8---x---8------------|
D|-7----7--7---9---x---9---9---9------------|
A|-7-------7---9---x-------9----------------|
E|-5-------5---7---x-------7----------------|
   .       .       .       .

Parte 2 de  2
   G#m         C#m             
E|-x-------x-------x-------x----------------|
B|-x----4--x-------x---9---x---9------------|
G|-x----4--x-------x---9---x---9------------|
D|-6----6--6---11--x---11--11--11-----------|
A|-6-------6---11--x-------11---------------|
E|-4-------4---9---x-------9----------------|

 A               B   
Come on Barbie, let's go party!
G#m     C#m  
Ah, ah, ah, yeah
 A               B   
Come on Barbie, let's go party!
G#m         C#m  
    Uh, oh,     uh, oh
 A               B   
Come on Barbie, let's go party!
G#m     C#m  
Ah, ah, ah, yeah

 A               B   
Come on Barbie, let's go party!
G#m         C#m        
    Uh, oh,     uh, oh

[Quarta Parte]

[Tab - Quarta Parte]

Parte 1 de 9
   C#m
E|------------------------------------------|
B|------------------------------------------|
G|-9---9---9-----9--------------------------|
D|-11--11--11----11-------------------------|
A|-11--11--11----11-------------------------|
E|-9---9---9-----9--------------------------|
   .   .   .     .  

Parte 2 de 9
   C#m             
E|-x-------x--------------------------------|
B|-x----9--x---9-------9------9-------------|
G|-x----9--x---9-------9------9-------------|
D|-11---11-11--11--11--11--11-11------------|
A|-11------11------11------11---------------|
E|-9-------9-------9-------9----------------|
   .       .       .       .

Parte 3 de 9
   F#m
E|-x-------x--------------------------------|
B|-x----2--x---2-------2------2-------------|
G|-x----2--x---2-------2------2-------------|
D|-4----4--4---4---4---4---4--4-------------|
A|-4-------4-------4-------4----------------|
E|-2-------2-------2-------2----------------|
   .       .       .       .

Parte 4 de 9
   B               
E|-x-------x-------x-------x----------------|
B|-x----7--x---7---x----7--x--7-------------|
G|-x----8--x---8---x----8--x--8-------------|
D|-9----9--9---9---9----9--9--9-------------|
A|-9-------9-------9-------9----------------|
E|-7-------7-------7-------7----------------|
   .       .       .       .

Parte 5 de 9
   C#m             
E|-x-------x--------------------------------|
B|-x----9--x---9-------9------9-------------|
G|-x----9--x---9-------9------9-------------|
D|-11---11-11--11--11--11--11-11------------|
A|-11------11------11------11---------------|
E|-9-------9-------9-------9----------------|
   .       .       .       .

Parte 6 de 9
   C#m             
E|-x-------x--------------------------------|
B|-x----9--x---9-------9------9-------------|
G|-x----9--x---9-------9------9-------------|
D|-11---11-11--11--11--11--11-11------------|
A|-11------11------11------11---------------|
E|-9-------9-------9-------9----------------|
   .       .       .       .

Parte 7 de 9
   F#m
E|-x-------x--------------------------------|
B|-x----2--x---2-------2------2-------------|
G|-x----2--x---2-------2------2-------------|
D|-4----4--4---4---4---4---4--4-------------|
A|-4-------4-------4-------4----------------|
E|-2-------2-------2-------2----------------|
   .       .       .       .

Parte 8 de 9
   B               
E|-x-------x-------x-------x----------------|
B|-x----7--x---7---x----7--x--7-------------|
G|-x----8--x---8---x----8--x--8-------------|
D|-9----9--9---9---9----9--9--9-------------|
A|-9-------9-------9-------9----------------|
E|-7-------7-------7-------7----------------|
.       .       .       .

Parte 9 de 9
   C#m             
E|-x-------x--------------------------------|
B|-x----9--x---9-------9------9-------------|
G|-x----9--x---9-------9------9-------------|
D|-11---11-11--11--11--11--11-11------------|
A|-11------11------11------11---------------|
E|-9-------9-------9-------9----------------|
   .       .       .       .

         C#m
Make me walk, make me talk
       F#m
Do whatever you please
      B
I can act like a star
       C#m
I can beg on my knees
           
Come jump in, bimbo friend
        F#m 
Let us do it again
         B                
Hit the town, fool around
          C#m
Let's go party

[Quinta Parte]

[Tab - Quinta Parte]

Parte 1 de 4
   C#m         F#5
E|-x-------x--------------------------------|
B|-x----9--x-------x------------------------|
G|-x----9--x-------x-------x----------------|
D|-11---11-11--11--x--11---x-11-------------|
A|-11------11--9---x--9----x-9--------------|
E|-9-------9-------x-------x----------------|
   .       .       .       . 

 Parte 2 de  4
   B               E
E|-x-------x-------x-------x----------------|
B|-x----7--x-------x-------x----------------|
G|-x----8--x---9---x-------x----------------|
D|-9----9--9---9---x---9---x--9-------------|
A|-9-------9---7---x---7---x--7-------------|
E|-7-------7-------x-------x----------------|
.       .       .       .

Parte 3 de 4
   C#m         F#5
E|-x-------x--------------------------------|
B|-x----9--x-------x------------------------|
G|-x----9--x-------x-------x----------------|
D|-11---11-11--11--x--11---x-11-------------|
A|-11------11--9---x--9----x-9--------------|
E|-9-------9-------x-------x----------------|

Parte 4 de 4
   B4              B
E|-x-------x-------x-------x----------------|
B|-x----7--x-------x-------x----------------|
G|-9----9--x---8---x---8---x--8-------------|
D|-9----9--9---9---x---9---x--9-------------|
A|-9-------9---9---x---9---x--9-------------|
E|-7-------7---7---x---7---x--7-------------|
   .       .       .       .

         C#m   F#5           B  E5
You can touch,     you can play
        C#m  F#5         B4   B 
If you say   I'm always yours
         C#m   F#5           B  E5
You can touch,     you can play
        C#m  
If you say
F#5         B4   B 
I'm always yours   (uh, oh)

[Sexta Parte]

 A               B   
Come on Barbie, let's go party!
G#m     C#m  
Ah, ah, ah, yeah
 A               B   
Come on Barbie, let's go party!
G#m         C#m  
    Uh, oh,     uh, oh
 A               B   
Come on Barbie, let's go party!
G#m     C#m  
Ah, ah, ah, yeah
 A               B   
Come on Barbie, let's go party!
G#m         C#m  
    Uh, oh,     uh, oh

[Refrão]

C#m           F#m  
I'm a Barbie Girl
B            E
In a Barbie World
C#m           F#m    B4  
    Life in plastic
         B
It's fantastic
 C#m              F#m  
You can brush my hair
B                 E
Undress me everywhere
C#m       F#m    
    Imagination
 B4             B
Life is your creation

[Sétima Parte]

[Tab - Sétima Parte - 4x]

Parte 1 de  2
   A           B
E|-x-------x-------x-------x----------------|
B|-x----5--x-------x---7---x---7------------|
G|-x----6--x---8---x---8---x---8------------|
D|-7----7--7---9---x---9---9---9------------|
A|-7-------7---9---x-------9----------------|
E|-5-------5---7---x-------7----------------|
   .       .       .       .

Parte 2 de  2
   G#m         C#m             
E|-x-------x-------x-------x----------------|
B|-x----4--x-------x---9---x---9------------|
G|-x----4--x-------x---9---x---9------------|
D|-6----6--6---11--x---11--11--11-----------|
A|-6-------6---11--x-------11---------------|
E|-4-------4---9---x-------9----------------|

 A               B   
Come on Barbie, let's go party!
G#m     C#m  
Ah, ah, ah, yeah
 A               B   
Come on Barbie, let's go party!
G#m         C#m  
    Uh, oh,     uh, oh
 A               B   
Come on Barbie, let's go party!
G#m     C#m  
Ah, ah, ah, yeah
 A               B   
Come on Barbie, let's go party!
G#m         C#m  
    Uh, oh,     uh, oh

[Final] A  B  G#m  C#m
        A  B  E  C#m 

Oh, I'm having so much fun!
- Well, Barbie
We're just gettin' started!
- Oh, I love you, Ken!

[Tab - Final]

Parte 1 de 2
   A   B   G#m C#m A   B   E   C#m 
E|------------------------------------------|
B|-5---7---4---9---5---7---9---9------------|
G|-6---8---4---9---6---8---9---9------------|
D|-7---9---6---11--7---9---9---11-----------|
A|-------------------------7----------------|
E|-5---9---4---9---5---7-------9------------|

Parte 2 de 2
   A   B   G#m C#m A   B   E   C#m 
E|------------------------------------------|
B|-5---7---4---9---5---7---9---9------------|
G|-6---8---4---9---6---8---9---9------------|
D|-7---9---6---11--7---9---9---11-----------|
A|-------------------------7----------------|
E|-5---9---4---9---5---7-------9------------|
Otros videos de esta canción
    96.975 exhibiciones
      • ½ Tono
      • Am
      • Bbm
      • Bm
      • Cm
      • C#m
      • Dm
      • Ebm
      • Em
      • Fm
      • F#m
      • Gm
      • G#m
    • Agregar a la lista

    Afinación de cifrado

    Afinador online

      Capítulos
      • Apresentação
      • Tocando a Música
      • Acordes da Intro
      • Dicas da Intro
      • Tocando a Intro e o Refrão
      • Ensinando a Intro
      • Ensinando o Refrão
      • Acorde da Primeira Parte
      • Tocando a Primeira Parte
      • Ensinando a Primeira Parte
      • Acordes da Segunda Parte
      • Tocando a Segunda Parte
      • Ensinando a Segunda Parte
      • Tocando o Refrão
      • Acordes da Terceira Parte
      • Ensinando a Terceira Parte
      • Dicas da Sequência da Música
      • Tocando a Quinta Parte e a Sexta Parte
      • Ensinando a Quinta Parte
      • Tocando a Sétima Parte
      • Ensinando a Parte Final
      • Encerramento
      OK