Cifra Club

Awesome Forces

Aquabats

Cifrado: Principal (guitarra y guitarra eléctrica)
tono: A
Intro:

                                     1st and 3rd       2nd                4th
|-----------9-12-9-12-9-----------|------------------|------------------|------------------------|
|-----10-12--------------12--10---|------------------|------------------|------------------------|
|o--9----------------------------o|--9--11-9---9-11--|--9--10-10--10-9--|--9--10--10-10-9-9------|
|o-------------------------------o|------------------|------------------|--------------------7~--|
|---------------------------------|------------------|------------------|------------------------|
|---------------------------------|------------------|------------------|------------------------|

Intro (Guitar in BG) & CHORUS:

       A         F#        A     F# F# F# E
|--------------------------------------------|
|--------------------------------------------|
|--------------------------------10-10-10-9--|
|--77777777--44444444--77777777--10-10-10-9--|
|--77777777--44444444--77777777--8--8--8--7--|
|--55555555--22222222--55555555--------------|

Verse:

      A         F#        B          D
|------------------------------------------|
|------------------------------------------|
|----------------------44444444--77777777--|
|--77777777--44444444--44444444--77777777--|
|--77777777--44444444--22222222--55555555--|
|--55555555--22222222----------------------|

Bridge Solo:

|----------------------------------------------------|
|----------------------------------------------------|
|-----6---6-6-6-4---4----------4----4-6-4----4-6-6~--|
|--/7-------------7-----4~---7---4----------7--------|
|----------------------------------------------------|
|----------------------------------------------------|

|-----------------------------------------------------|
|----------5-5----------------------------------------|
|-----6--------6-4-6-----------4-----4-6-4----4-6-6~--|
|--/7-----------------4~-----7---4----------7---------|
|-----------------------------------------------------|
|-----------------------------------------------------|

|-------------------------|
|-------------------------|
|----6---7-6--------------|
|--7---7-------9-7-9-7-7--|x3
|------------9------------|
|-------------------------|


Outro:
Repeat Chorus

   F# F# F# E      End on A
|--------------|   |------|
|--------------|   |------|
|--10-10-10-9--|   |--14--|
|--10-10-10-9--|x3 |--14--|
|--8--8--8--7--|   |--12--|
|--------------|   |------|


00:00 / 00:00
Otros videos de esta canción
Repetir
Otros videos de esta canción
Compositor no encontrado.
21 vistas
    • ½ Tono
    • A
    • Bb
    • B
    • C
    • Db
    • D
    • Eb
    • E
    • F
    • F#
    • G
    • Ab
  • Agregar a la lista

    0 comentarios

    Ver todos los comentarios

    ¿Lograste tocar?

    0 Tocaron 0 Aún no

    ¡Graba un video tocando Awesome Forces y envíanoslo!

    00:00 / 00:00
    OK