Cifra Club

Pizza Day

Aquabats

Tab de bajo: Versão 2
Tabbed By : Greg Niermeyer
e-mail: *

everything should be correct, let me know if it isnt.

~ let ring
/ slide


Intro/Chorus

G||--------------------------------------------------------------------|
D||--------------------------------------------------------------------|
A||-----------------8-8-8-8-8~~~8-8------------------------------------| x2
E||-6-6-6-6-6~~~6-6----------------4-4-4-4-4~~~4-4-4 / 6-6-6-6~~~------|

G||--------------------------------------------------------------------|
D||--------------------------------------------------------------------|
A||--------------------------------------------------------------------|
E||-4-4-4-4-4~~~4-4-4 / 6-6-6-6~~~6-6-4-4-4-4-4-4-4-4-4~~~~~-----------|


Verse

G||--------------------------------------------------------------------|
D||-----------------------7--------------------------------------------|
A||-----------6-8-8-8-------8-10------------------------8-10-8-6-5-----| x7
E||-6-6-6-6----------------------10-10-10----10-11-11------------------|

Chorus
Verse x7

Bridge

G||--------------------------------------------------------------------|
D||--------------------------------------------------------------------|
A||-------888-8-5-5-5-6-6-6-6-8-8-8------------------------------------| x12
E||-6-6-6--------------------------------------------------------------|


Outro

G||--------------------------------------------------------------------|
D||--------------------------------------------------------------------|
A||-----------------8-8-8-8-8~~~8-8-5-5-5-5-5~~~5-5-5 / 6-6-6-6~~~-----| x2
E||-6-6-6-6-6~~~6-6----------------------------------------------------|

G||--------------------------------------------------------------------|
D||--------------------------------------------------------------------|
A||-----------------8-8-8-8-8~~~8-8------------------------------------| x2
E||-6-6-6-6-6~~~6-6----------------4-4-4-4-4~~~4-4-4 / 6-6-6-6~~~------|

G||---------------------------------------------------------------------|
D||---------------------------------------------------------------------|
A||---------------------------------------------------------------------|
E||-4-4-4-4-4~~~4-4-4 / 6-6-6-6~~~6-6-4-4-4-4-4~~~4-4-4 / 6-6-6-6~~~6-6-|

G||--------------------------------------------------------------------|
D||--------------------------------------------------------------------|
A||--------------------------------------------------------------------|
E||-4-4-4-4-4-4-4-4-4~~~~~---------------------------------------------|
00:00 / 00:00
Otros videos de esta canción
Repetir
Otros videos de esta canción
Compositor no encontrado.
00:00 / 00:00
OK