Cifra Club

Playdough

Aquabats

Tab de bajo: Principal
tabbed by: Jeff Hernandez (*)


    Intro: 4 Times
G:------------------------------------------------------------
D:--3---3---3--3-1-0------3----3----3-------------------------
A:1---1---1----------3--1----1----1----2----------------------
E:------------------------------------------------------------

     8 Times
G:---------------------------------------------4--------------
D:--3---3---3--3-1-0-------3----3----3----4-------------------
A:1---1---1-----------3--1----1----1----2---------------------
E:------------------------------------------------------------

     "Running through my old life....." 4 Times
G:------11--------------------------9-------------------------
D:--11-----11--------11---------9----9------9-----------------
A:9---------------11-----11---7-----------9----9--------------
E:--------------9-------------------------7-------------------

     Chorus: "When I was a little man......" 2 Times
G:------------------------------------------------------------
D:------------------------------------------------------------
A:9-----------7-----------------------------------------------
E:------9------------7----------------------------------------

      Chorus: "GI Joe was an action man....." 
G:--------------------------------------------------------------------------
D:--8-11---------------6-9-------------8-11-8----------------6-9-6----------
A:9----------8-11---7---------6-9---9------------8-11-8---7-----------6-9-6-
E:---------9-----------------7-------------------9---------------------7----
00:00 / 00:00
Otros videos de esta canción
Repetir
Otros videos de esta canción
Compositor no encontrado.
28 exhibiciones
00:00 / 00:00
OK