Cifra Club

Stuck In A Movie

Aquabats

Tab de bajo: Principal
Album: Charge!!

  Verse:
G|------------------------------------------------|
D|-------------------2------2--3-3-2-3-5-5--3-----|
A|-----2------2--0-3----0-3-------------------2---|
E|-0-3----0-3-------------------------------------|

  Chorus:
G|---------------------------|
D|---------2-2-2-2-----------|
A|-0-0-0-0---------3-3-3-3---|
E|---------------------------|

  Other Part:
G|---------------------------------|
D|---------------------------------|
A|-8-8-8-8-8-8-8-7-----------------|
E|-----------------5-5-5-7-8-5-5-5-|
  
  Pause:
G|--------------|
D|--------------|
A|--------------|
E|--------------|

  End:
G|-------|
D|-------|
A|-----2-|
E|-0-3---|

Order to play:

Verse      6x
Chorus     4x
Verse      6x
Corus      4x
Other Part 4x
Pause      1x
Verse      3x
Chorus     8x
End        1x

Don´t know if it´s right but sounds good...
00:00 / 00:00
Otros videos de esta canción
Repetir
Otros videos de esta canción
Compositor no encontrado.
14 exhibiciones
00:00 / 00:00
OK