Cifra Club

Mal Acostumado

Araketu

Chords: Principal (acoustic and electric guitars)
tone: Cm
[Intro] Cm  Fm  Bb  Eb7M  Dm7(5-)  G7
        Cm  Fm  Bb  G7(4)  G7

E|------------------------------------------|
B|-----3-4-3-------------3-4-3--------------|
G|---5-------5---------5-------5---3~-------|
D|-5-----------5-6~--5-----------6----------|
A|------------------------------------------|
E|------------------------------------------|

E|-----------1---3~-------------------------|
B|-----1-3-4---4----8h9p8-6-8-6--6-6-6------|
G|---3---------------------------------8-7-5|
D|-3----------------------------------------|
A|------------------------------------------|
E|------------------------------------------|

[Primeira Parte]

Cm                        Fm  Bb
Amor de verdade eu só senti
           Eb7M       Dm7(5-)  G7   
Foi com você meu bem
   Cm                      Fm     Bb
E todas as loucuras desse nosso amor
         Eb7M       Dm7(5-)  G7
Você me deu também

[Pré-Refrão]

   Cm                       Fm 
Você já faz parte da minha vida
   Bb                   Eb7M        G7
E fica tão difícil dividir você de mim
    Cm                     Fm
E quando faz carinho me abraça
               Ab  
Aí eu fico de graça
                     G7  
Te chamando pra me amar

[Refrão]

           Fm
Mal acostumado
            Bb
Você me deixou
           Eb7M
Mal acostumado
            Cm
Com o seu amor
       Ab
Então volta
                        Fm
Traz de volta o meu sorriso
                    G7
Sem você não posso ser feliz

           Fm
Mal acostumado
            Bb
Você me deixou
           Eb7M
Mal acostumado
            Cm
Com o seu amor
       Ab
Então volta
                        Fm
Traz de volta o meu sorriso
                    G7    Cm
Sem você não posso ser feliz

( Fm  Bb  Eb7M  Dm7(5-)  G7 )
( Cm  Fm  Bb  G7(4)  G7 )

[Primeira Parte]

Cm                        Fm  Bb
Amor de verdade eu só senti
           Eb7M      Dm7(5-)  G7   
Foi com você meu bem
   Cm                      Fm     Bb
E todas as loucuras desse nosso amor
         Eb7M      Dm7(5-)  G7
Você me deu também

[Pré-Refrão]

   Cm                       Fm 
Você já faz parte da minha vida
   Bb                   Eb7M        G7
E fica tão difícil dividir você de mim
    Cm                     Fm
E quando faz carinho me abraça
               Ab  
Aí eu fico de graça
                     G7  
Te chamando pra me amar

[Refrão]

           Fm
Mal acostumado
            Bb
Você me deixou
           Eb7M
Mal acostumado
            Cm
Com o seu amor
       Ab
Então volta
                        Fm
Traz de volta o meu sorriso
                    G7
Sem você não posso ser feliz

           Fm
Mal acostumado
            Bb
Você me deixou
           Eb7M
Mal acostumado
            Cm
Com o seu amor
       Ab
Então volta
                        Fm
Traz de volta o meu sorriso
                    G7 
Sem você não posso ser feliz

           Fm
Mal acostumado
            Bb
Você me deixou
           Eb7M
Mal acostumado
            Cm
Com o seu amor
       Ab
Então volta
                        Fm
Traz de volta o meu sorriso
                    G7
Sem você não posso ser feliz

[Final] Cm  Fm  Bb  Eb7M  Dm7(5-)  G7
        Cm  Fm  Bb  G7(4)  G7  Cm7(9)

E|------------------------------------------|
B|-----3-4-3-------------3-4-3--------------|
G|---5-------5---------5-------5---3~-------|
D|-5-----------5-6~--5-----------6----------|
A|------------------------------------------|
E|------------------------------------------|

E|-----------1---3~-------------------------|
B|-----1-3-4---4----8h9p8-6-8-6--6-6-6------|
G|---3---------------------------------8-7-5|
D|-3----------------------------------------|
A|------------------------------------------|
E|------------------------------------------|
00:00 / 00:00
Other videos of this song
Repeat
Other videos of this song
Composed by Meg Evans / Ray Araujo
Collaboration and Review:
11.149 views
  • Simplify chords
    • ½ Tone
    • Am
    • Bbm
    • Bm
    • Cm
    • C#m
    • Dm
    • Ebm
    • Em
    • Fm
    • F#m
    • Gm
    • G#m
  • Add to list
    00:00 / 00:00
    OK