Cifra Club

Buried At Sea

Architects

Cifrado: Principal (guitarra y guitarra eléctrica)
Selo Cifra Club: esta cifra foi revisada para atender aos critérios oficiais da nossa Equipe de Qualidade.
tono: Bm
E|-----------------------------------------------------------------------|
B|-----------------------------------------------------------------------|
G|-----------------------------------------------------------------------|
D|-----------------------------------------------------------------------|
A|-----------------------------------------------------------------------|
E|-----------------------------------------------------------------------|

E|-----------------------------------------------------------------------|
B|-----------------------------------------------------------------------|
G|-----------------------------------------------------------------------|
D|--4-1-------------4-1-3--4T1---4-1-3-----------------------------------|
A|--4-1--3T0--6T5---4-1-3--------4-1-3--------------------(x2)-----------|
E|--4-1-------------4-1-3--------4-1-3--0-4-3-0-3-1-3*-------------------|

E|-----------------------------------------------------------------------|
B|-------------------------------------------------15p12-----------------|
G|----------------------------------12h14p13-------------14p11-----------|
D|--0------------------3h4p3-----------------14p12-----------------------|
A|--0----------3h6-4h7------6-4-3-4--------------------------------------|
E|--0--3h6-4h7-----------------------------------------------------------|

E|--17p16p14h16p14p13----------------------------------------------------|
B|--------------------16p15p13h15p13p12----------------------------------|
G|-----------------------------------------------------------------------|
D|-----------------------------------------------------------------------|
A|-----------------------------------------------------------------------|
E|-----------------------------------------------------------------------|

E|-----------------------------------------------------------------------|
B|-------------------------------------------------15p12-----------------|
G|----------------------------------12h14p13-------------14p11-----------|
D|--0------------------6h7p6-----------------14p12-----------------------|
A|--0----------5h8-6h9------9-7-6-7--------------------------------------|
E|--0--3h6-4h7-----------------------------------------------------------|

E|-----------------------------------------------------------------------|
B|-----------------------------------------------------------------------|
G|-----------------------------------------------------------------------|
D|--0-----------0--------------------------------------------------------|
A|--0-----------0--6h9p6---5h8p5-----------------------------------------|
E|--0--3h6-4h7--0-------7-------6----------------------------------------|

E|-----------------------------------------------------------------------|
B|-------------------------------------------------15p12-----------------|
G|----------------------------------12h14p13-------------14p11-----------|
D|--0------------------3h4p3-----------------14p12-----------------------|
A|--0----------3h6-4h7------6-4-3-4--------------------------------------|
E|--0--3h6-4h7-----------------------------------------------------------|

E|--17p16p14h16p14p13----------------------------------------------------|
B|-------------------16p15p13h15p13p12-----------------------------------|
G|-------------------------------------14p13p11h13p11p10-----------------|
D|-------------------------------------------------------13p12p10h12p10p9|
A|-----------------------------------------------------------------------|
E|-----------------------------------------------------------------------|

E|-----------------------------------------------------------------------|
B|--1~~----0~~----0~~----------------------------------------------------|
G|--2~~----2~~----0~~----------------------------------------------------|
D|--2~~----2~~----0~~----------------------------------------------------|
A|--0~~----0~~----0~~----------------------------------------------------|
E|-----------------------------------------------------------------------|

E|-----------------------------------------------------------------------|
B|--1~~----0~~-----------------------------------------------------------|
G|--2~~----2~~-----------------------------------------------------------|
D|--2~~----2~~----9------------------------------------------------------|
A|--0~~----0~~----6------------------------------------------------------|
E|----------------6------------------------------------------------------|

E|-----------------------------------------------------------------------|
B|-----------------------------------------------------------------------|
G|-----------4-----------------------------------------------------------|
D|-----------7-----------------------------------------------------------|
A|--3--3--0----0--0000--(x2)---------------------------------------------|
E|--5--5--0----0--0000---------------------------------------------------|
            p    p  pppp

E|-----------------------------------------------------------------------|
B|-----------------------------------------------------------------------|
G|-----------------------------------------------------------------------|
D|--4-1-------------4-1-3--4T1---4-1-3-----------------------------------|
A|--4-1--3T0--6T5---4-1-3--------4-1-3--------------------(x4)-----------|
E|--4-1-------------4-1-3--------4-1-3--0-4-3-0-3-1-3*-------------------|

E|-----------------------------------------------------------------------|
B|-----------------------------------------------------------------------|
G|-----------------------------------------------------------------------|
D|--0------------------6h7p6---------------------------------------------|
A|--0----------5h8-6h9-------12//----------------------------------------|
E|--0--3h6-4h7---------------12//----------------------------------------|

E|-----------------------------------------------------------------------|
B|-----------------------------------------------------------------------|
G|-----------------------------------------------------------------------|
D|--0-----------0--------------------------------------------------------|
A|--0-----------0--6h9p6---5h8p5---(x4)----------------------------------|
E|--0--3h6-4h7--0-------7-------6----------------------------------------|

E|-----------------------------------------------------------------------|
B|-------------------------------------------------15p12-----------------|
G|----------------------------------12h14p13-------------14p11-----------|
D|--0------------------6h7p6-----------------14p12-----------------------|
A|--0----------5h8-6h9------9-7-6-7--------------------------------------|
E|--0--3h6-4h7-----------------------------------------------------------|

E|--17p16p14h16p14p13----------------------------------------------------|
B|--------------------16p15p13h15p13p12----------------------------------|
G|-----------------------------------------------------------------------|
D|-----------------------------------------------------------------------|
A|-----------------------------------------------------------------------|
E|-----------------------------------------------------------------------|

E|-----------------------------------------------------------------------|
B|-------------------------------------------------15p12-----------------|
G|----------------------------------12h14p13-------------14p11-----------|
D|--0------------------6h7p6-----------------14p12-----------------------|
A|--0----------5h8-6h9------9-7-6-7--------------------------------------|
E|--0--3h6-4h7-----------------------------------------------------------|

E|--17p16p14h16p14p13----------------------------------------------------|
B|-------------------16p15p13h15p13p12-----------------------------------|
G|-------------------------------------14p13p11h13p11p10-----------------|
D|-------------------------------------------------------13p12p10h12p10p9|
A|-----------------------------------------------------------------------|
E|-----------------------------------------------------------------------|

E|-----------------------------------------------------------------------|
B|-----------------------------------------------------------------------|
G|-----------------------------------------------------------------------|
D|-----------------------------------------------------------------------|
A|--12p0h3h12-(x6)--14p0h3h14p0h3h15p0h3h15------------------------------|
E|-----------------------------------------------------------------------|

E|-----------------------------------------------------------------------|
B|-----------------------------------------------------------------------|
G|-----------------------------------------------------------------------|
D|-----------------------------------------------------------------------|
A|--11p0h2h11-(x6)--15p0h2h15p0h2h14p0h2h14------------------------------|
E|-----------------------------------------------------------------------|

Repeat that section for a while :]

E|-----------------------------------------------------------------------|
B|--1~~----0~~----0~~----------------------------------------------------|
G|--2~~----2~~----0~~----------------------------------------------------|
D|--2~~----2~~----0~~----------------------------------------------------|
A|--0~~----0~~----0~~----------------------------------------------------|
E|-----------------------------------------------------------------------|

E|-----------------------------------------------------------------------|
B|--1~~----0~~-----------------------------------------------------------|
G|--2~~----2~~-----------------------------------------------------------|
D|--2~~----2~~----9------------------------------------------------------|
A|--0~~----0~~----6------------------------------------------------------|
E|----------------6------------------------------------------------------|

E|-----------------------------------------------------------------------|
B|-----------------------------------------------------------------------|
G|-----------------------------------------------------------------------|
D|-----------------------------------------------------------------------|
A|--12----------------12---11----------------11---8----------------------|
E|-----00000000000000----0----00000000000000----0---00000000000000-------|
         pppppppppppppp    p    pppppppppppppp    p   pppppppppppppp

E|-----------------------------------------------------------------------|
B|-----------------------------------------------------------------------|
G|-----------------------------------------------------------------------|
D|------------------4h5p4------------------------------------------------|
A|----------3h6-4h7-------7-5-4-5----------------------------------------|
E|--3h6-4h7--------------------------------------------------------------|

E|-----------------------------------------------------------------------|
B|-----------------------------------------------------------------------|
G|-----------------------------------------------------------------------|
D|-----------------------------------------------------------------------|
A|--12----------------12---11----------------11---8----------------------|
E|-----00000000000000----0----00000000000000----0---00000000000000-------|
         pppppppppppppp    p    pppppppppppppp    p   pppppppppppppp

E|-----------------------------------------------------------------------|
B|-----------------------------------------------------------------------|
G|-----------4-----------------------------------------------------------|
D|-----------7-----------------------------------------------------------|
A|--3--3--0----0--0000---------------------------------------------------|
E|--5--5--0----0--0000---------------------------------------------------|
            p    p  pppp

And that's the rest of the song pretty much.
Just put them in the right places :]
YOu guys have it.
It was all done by ear.
So some parts may be sketchy but it's very close.
If you have any questions, ask :]
Otros videos de esta canción
    14 exhibiciones
      • ½ Tono
      • Am
      • Bbm
      • Bm
      • Cm
      • C#m
      • Dm
      • Ebm
      • Em
      • Fm
      • F#m
      • Gm
      • G#m
    • Agregar a la lista

    Afinação da cifra

    Afinador online

      Ops (: Contenido disponible solo en portugués.
      OK