Cifra Club

505

Arctic Monkeys

Cifrado: Principal (guitarra y guitarra eléctrica)
tono: C
[Intro] Dm  Em  Dm  Em

[Refrão]

           Dm
I'm going back to 505
          Em
If it's a 7 hours flight
     Dm
Or a 45 minute drive
    Em
In my imagination you're
         Dm
Waiting lying on your side
           Em
With your hands between

Your thighs

( Dm  Em )

[Primeira Parte]

  Dm
Stop and wait a sec
          Em
When you look at me like that
             Dm
My darling what did you expect?
    Em
I probably still adore you
           Dm
With your hands around my neck
      Em
Or I did last time I checked

( Dm  Em )

     Dm
I'm not shy of a spark
      Em
The knife twists at the thought
               Dm
That I should fall

Short of the mark
  Em
Frightened by the bite
            Dm
No it's no harsher than the bark
   Em
A middle of adventure
        Dm                    Em
Such a perfect place to start

[Refrão]

           Dm
I'm going back to 505
          Em
If it's a 7 hours flight
     Dm
Or a 45 minute drive
    Em
In my imagination you're
         Dm
Waiting lying on your side
           Em
With your hands between your thighs

( Dm  Em )

[Tab - solo]

[Parte 1 de 6]

E|-12-10-8-7--------------------------------|
B|------------------------------------------|
G|------------------------------------------|
D|------------------------------------------|
A|------------------------------------------|
E|------------------------------------------|

[Parte 2 de 6]

   Dm                          Em
E|------------------------------------------|
B|------------------------------------------|
G|------------------------------------------|
D|-14-12-10-9-7-9-10--10-10-10-10/9---------|
A|------------------------------------------|
E|------------------------------------------|

[Parte 3 de 6]

E|------------------------------------------|
B|------------------------------------------|
G|------------------------------------------|
D|-9-9-9-9/14-14-14-14-14-14-14-------------|
A|------------------------------------------|
E|------------------------------------------|

[Parte 4 de 6]

   Dm                          Em
E|------------------------------------------|
B|------------------------------------------|
G|------------------------------------------|
D|-14-12-10-9-7-9-10--10-10-10-10/9---------|
A|------------------------------------------|
E|------------------------------------------|

[Parte 5 de 6]

                                 Dm    Em
E|-------------------------------12----7----|
B|-------------------------------12----8----|
G|-------------------------------12----9----|
D|-9-9-9-9/14-14-14-14-14-14-14--14---------|
A|------------------------------------------|
E|------------------------------------------|

[Parte 6 de 6]

   Dm   Em
E|-5----7-----------------------------------|
B|-6----8-----------------------------------|
G|-7----9-----------------------------------|
D|------------------------------------------|
A|------------------------------------------|
E|------------------------------------------|

[Ponte]

                   Dm
But I crumble completely when you cry
    Em
It seems like once again
                Dm
You've had to greet me with goobye
    Em
I'm always just about to go
      Dm
And spoil the surprise
         Em                         
Take my hands off
                  Dm  Em
Of your eyes too soon

[Refrão]

           Dm
I'm going back to 505
          Em
If it's a 7 hours flight
     Dm
Or a 45 minute drive
    Em
In my imagination you're
         Dm
Waiting lying on your side
           Em
With your hands between
                    Dm  Em
Your thighs and a smile

( Dm  Em )

[Tab - Solo]

[Parte 1 de 12]

   Dm                            Em
E|------------------------------------------|
B|-17-15-13-12-10-12-13-13-13-13-13/12------|
G|------------------------------------------|
D|------------------------------------------|
A|------------------------------------------|
E|------------------------------------------|

[Parte 2 de 12]

E|------------------------------------------|
B|-12-12-12-12/17-17-17-17-17-17-17---------|
G|------------------------------------------|
D|------------------------------------------|
A|------------------------------------------|
E|------------------------------------------|

[Parte 3 de 12]

  Dm                             Em
E|------------------------------------------|
B|-17-15-13-12-10-12-13-13-13-13-13/12------|
G|------------------------------------------|
D|------------------------------------------|
A|------------------------------------------|
E|------------------------------------------|

[Parte 4 de 12]

E|------------------------------------------|
B|-12-12-12-12/17-17-17-17-17-17-17---------|
G|------------------------------------------|
D|------------------------------------------|
A|------------------------------------------|
E|------------------------------------------|

[Parte 5 de 12]

  Dm                             Em
E|------------------------------------------|
B|-17-15-13-12-10-12-13-13-13-13-13/12------|
G|------------------------------------------|
D|------------------------------------------|
A|------------------------------------------|
E|------------------------------------------|

[Parte 6 de 12]

E|------------------------------------------|
B|-12-12-12-12/17-17-17-17-17-17-17---------|
G|------------------------------------------|
D|------------------------------------------|
A|------------------------------------------|
E|------------------------------------------|

[Parte 7 de 12]

  Dm                             Em
E|------------------------------------------|
B|-17-15-13-12-10-12-13-13-13-13-13/12------|
G|------------------------------------------|
D|------------------------------------------|
A|------------------------------------------|
E|------------------------------------------|

[Parte 8 de 12]

E|------------------------------------------|
B|-12-12-12-12/17-17-17-17-17-17-17---------|
G|------------------------------------------|
D|------------------------------------------|
A|------------------------------------------|
E|------------------------------------------|

[Parte 9 de 12]

   Dm                          Em
E|------------------------------------------|
B|------------------------------------------|
G|------------------------------------------|
D|-14-12-10-9-7-9-10--10-10-10-10/9---------|
A|------------------------------------------|
E|------------------------------------------|

[Parte 10 de 12]

E|------------------------------------------|
B|------------------------------------------|
G|------------------------------------------|
D|-9-9-9-9/14-14-14-14-14-14-14-------------|
A|------------------------------------------|
E|------------------------------------------|

[Parte 11 de 12]

   Dm                          Em
E|------------------------------------------|
B|------------------------------------------|
G|------------------------------------------|
D|-14-12-10-9-7-9-10--10-10-10-10/9---------|
A|------------------------------------------|
E|------------------------------------------|

[Parte 12 de 12]

         Dm
E|-------12---------------------------------|
B|-------12---------------------------------|
G|-------12---------------------------------|
D|-9-9-9/14---------------------------------|
A|------------------------------------------|
E|------------------------------------------|
00:00 / 00:00
Otros videos de esta canción
Repetir
Otros videos de esta canción
Composición de Alex Turner
33.507 vistas
    • ½ Tono
    • A
    • Bb
    • B
    • C
    • Db
    • D
    • Eb
    • E
    • F
    • F#
    • G
    • Ab
  • Agregar a la lista

    0 comentarios

    Ver todos los comentarios

    ¿Lograste tocar?

    205 Tocaron 18 Aún no

    ¡Graba un video tocando 505 y envíanoslo!

    00:00 / 00:00
    OK