Cifra Club

Arabella

Arctic Monkeys

Tablatura: Principal (guitarra)
Tom: C
[Intro]

E|---------------5----------------------|
B|---------5-7-8---8-7-5----------------|
G|-/14~---------------------------------| 
D|--------------------------------------|
A|--------------------------------------|
E|--------------------------------------|

[Verso]
    
E|---------5----------------------------|
B|---5-7-8---8-7-5----------------------|
G|--------------------------------------| 
D|--------------------------------------|
A|--------------------------------------|
E|--------------------------------------|

[Pre-Chorus]

E|-------------|------------------------|
B|-------------|------------------------|
G|-7-9---------|---7-9------------------|
D|-7-9---7---5-|x3-7-9------------------|
A|-5-7---7---5-|---5-7------------------|
E|-------5---3-|------------------------|

[Chorus]

E|--------------------------------------|
B|--------------------------------------|
G|-7-9--12--7-9-14--7-9-12--12-9--16----|
D|-7-9--12--7-9-14--7-9-12--12-9--16----|
A|-5-7--10--5-7-12--5-7-10--10-7--14----|
E|--------------------------------------|

Em

E|---------------------------------------------------------------------------|
B|---------------------------------------------------------------------------|
G|-14b16b14p12---x7-12/14/12------12h14b16-14-13h14p12--------------12h14b16-|
D|------------14-------------12h14---------------------14------12h14---------|
A|--------------------------------------------------------12h14--------------|
E|---------------------------------------------------------------------------|

E|---------------------------------------------------|
B|--------18-----------------------------------------|
G|14-14b16--14b16b14~-12-----------------------------|
D|----------------------14---------------------------|
A|---------------------------------------------------|
E|---------------------------------------------------|

[Chorus]

End in
E|------------------------------|
B|------------------------------|
G|-7-9--------------------------|
D|-7-9--------------------------|
A|-5-7--------------------------|
E|------------------------------|
reproducciones 10.163
Acordes para:
    Composição: Alex Turner Colaboración y revision:
    • Marcos Paulo
    • Bruno

    0 comentarios

    mostrar más comentarios

    ¿Conseguiste tocar?

    19 tocaron 12 aún no

    ¡Graba un vídeo tocando Arabella y envianoslo!

    00:00 / 00:00
    outros vídeos desta música
    repetir qualidade Automático
    Outros vídeos desta música
    00:00 / 00:00
    Automático
    OK