Cifra Club

Bad Thing

Arctic Monkeys

Tablatura: Principal (guitarra)
Tom: G
Tabbed by: Ross AR

Tuning: Standard EADGBE

Both solos in this song are pretty much identical, it's pretty fast but you'll get the 
of it, I think it's almost right, there might be a few mistakes though.

e|-----------------------------------------------------------------------------|
B|-----------------------------------------------------------------------------|
G|-999-7-----999-7-------------------------------------------------------------|
D|-------10---------10-7-----7-10-7----7---10----------------------------------|
A|------------------------10----------10---------------------------------------|
E|-----------------------------------------------------------------------------|

Play 2 times

e|-------------------------------------------------------------------------|
B|----------------------------------------------------------12-------------|
G|--1414-------1212-------1414------------------12-14-12-14----14-12-14-11-|
D|-------14-14------14-14------14-14--10/12/14-----------------------------|
A|-------------------------------------------------------------------------|
E|-------------------------------------------------------------------------|


| /  slide up
| \  slide down
| h  hammer-on
| p  pull-off
| ~  vibrato
| +  harmonic
| x  Mute note
===============================================================================
reproducciones 310
Acordes para:

    0 comentarios

    mostrar más comentarios

    ¿Conseguiste tocar?

    0 tocaron 0 aún no

    ¡Graba un vídeo tocando Bad Thing y envianoslo!

    00:00 / 00:00
    outros vídeos desta música
    repetir qualidade Automático
    Outros vídeos desta música
    00:00 / 00:00
    Automático
    OK