Cifra Club

Black Treacle

Arctic Monkeys

Tab de bajo: Principal
Verso:
G|----------------------------------------------------------------------------|
D|---------5-5-5-7-5\-----------5-5------------------5-5-5-7-5----------------|
A|-----3/5------------------3/5-----7-5-7\-------3/5-------------5-7-5-0-3-3--|
E|-3-3------------------3-3------------------3-3------------------------------|

G|---------------------------------------------------------------------------------|
D|-----------------------------5-5-5-7-5\------------------------------------------|
A|-------------------------3/5----------------5-5-0-5-7-5-0-5\3-3---5\2-3-3---5\2--|
E|-3--10\7/8-8---3-10\-3-3----------------------------------------3---------3------|

G|-------------------------------------------------------|
D|-------------------------------------------------------|
A|-------------------------------------------------------|
E|-3-3-3-3-3-3-3/10\3-3-3-3-3-3-3/10\3-3-3-3-3-3-3/10\3--|

Refrão:
G|---------------------------------|
D|---------------------0-2---------|
A|-----5-5-2---3-3-3-3-----2-0-----|  (3x)
E|-3-3-------3-----------------3-3-|

G|----------------------------------------------------------------------------------|
D|------------------------------------------------5---------------------------------|
A|-------------3~---------------0-2-3-3/5-6---------------9\7-7-7-------3-5-3-2-----|
E|-3-3-5-5-5-5------3-5-3-0-2-3---------------3-3---3-7-7---------7-7\3---------3~--|

Verso 2:
G|----------------------------------------------------------------------------|
D|---------5-5-5-7-5\-----------5-5------------------5-5-5-7-5----------------|
A|-----3/5------------------3/5-----7-5-7\-------3/5-------------5-7-5-0-3-3--|
E|-3-3------------------3-3------------------3-3------------------------------|

G|----------------------------------------------------------------------------|
D|-----------------------------5-5-5-7-5--------------------------------------|
A|-------------------------3/5-----------5-5-0-5-7-5-0-5\3-3---5\2-3-3---5\2--|
E|-3--10\7/8-8---3-10\-3-3-----------------------------------3---------3------|

G|--------------------------------------------------------------------------|
D|---------5-5-5-7-5\-----------5-5-5--------------5-5-5-7-5\---------------|
A|-----3/5------------------3/5----------------3/5-------------5-7-5-0-3-3--|
E|-3-3------------------3-3----------------3-3------------------------------|

G|--------------------------------------------------------------------------------------|
D|---------------------------5-0-0----0-2-0-----------------------------------------5---|
A|-3-3-------------------3/5----------------0-3-3-------------------------------3/5-----|
E|-----3-10\3-3-3----3-3--------------------------3-10\7/8-8-3-10\3-3-3-3-3-3-3-------3-|

Refrão:
G|---------------------------------|
D|---------------------0-2---------|
A|-----5-5-2---3-3-3-3-----2-0-----| (3x)
E|-3-3-------3-----------------3-3-|

G|----------------------------------------------------------------------------------|
D|------------------------------------------------5---------------------------------|
A|-------------3~---------------0-2-3-3/5-6---------------9\7-7-7-------3-5-3-2-----|
E|-3-3-5-5-5-5------3-5-3-0-2-3---------------3-3---3-7-7---------7-7\3---------3~--|

Ponte:
G|-------------------------------------------------------------------|
D|-------------------------------2-0-0-0-0---------------------------|
A|---------------2-3-3-3---3-2-3-----------2-2-0-0---------------2---|
E|-3-3-3-3-3-0-3---------3-------------------------3-3-3-3-3-0-3-----|

G|-------------------------------------------------------------------|
D|-------------------------------2-0-0-0-0---------------------------|
A|---------------2-3-3-3---3-2-3-----------2-2-0-0-------------------|
E|-3-3-3-3-3-0-3---------3-------------------------3-3-3-3-2-3-2-2---|

G|-------------------------------------------------------------------|
D|-2-2-2-------------------------2-0-0-0-0---------------------------|
A|-------------0-2-3-3-3---3-2-3-----------2-2-0-0-------------------|
E|-------0-2-3-----------3-------------------------3-3-3-3-3-0-2-3---|

G|------------------------------------------------|
D|-------------------------------2-0--------------|
A|-3-3-3---3-3-3---3-3-3---3-2-3---------2~----0--|
E|-------3-------3-------3------------------------|

G|----------------------------------------------------------------------|
D|------5----------------------------------5----------------------------|
A|--------------9\7-7-7~---3-5-3-2-----------------9\7-7-7~---3-5-3-2---|
E|--3-3---3-7-7------------------------3-3---3-7-7----------------------|

G|-------------------------------------------------------------------------|
D|------5----------------------------------5-------------------------------|
A|--------------9\7-7--7-7-3-3-3-2-----------------9\7-7-7-----3-5-3-2-----|
E|--3~----3-7-7-------------------------3~---3-7-7---------7-5---------3~--|
reproducciones 100
Composição: Alex Turner / Arctic Monkeys Colaboración y revision:
  • leonardo s

0 comentarios

mostrar más comentarios

¿Conseguiste tocar?

1 tocaron 0 aún no

¡Graba un vídeo tocando Black Treacle y envianoslo!

00:00 / 00:00
outros vídeos desta música
repetir qualidade Automático
Outros vídeos desta música
00:00 / 00:00
Automático
OK