Cifra Club

Brick By Brick

Arctic Monkeys

Tablatura: Principal (guitarra)
Tom: D
Intro: E G E  (x2)

               E  G
I wanna build you up
            E
(Brick by brick)
               E   G
I wanna break you down
            E
(Brick by brick)
              E   G
I'm gonna reconstruct
            E
(Brick by brick)
               E   G
I wanna feel your love


            A  G   E         A  G  E
Brick by bri____________ick  ooooooooh    (x2)

E G (x2)


Solo 1: E G E (x4)

E|----------------------------------------------------------------------------|
B|--12--------------------------15b17--15b17-12-------------------------------|
G|--14b15-14b16---14b16p12---12---------------------14p12h14--14b16p12--------|
D|------------------------14----------------------14-------------------14-12--|
A|----------------------------------------------------------------------------|
E|----------------------------------------------------------------------------|

E|-------------------|
B|---------12--------|
G|-----12-----12-----|
D|--14-----------14--|
A|-------------------|
E|-------------------|


                E   G
I wanna steal your soul
            E
(Brick by brick)
             E    G
I wanna rock and roll
            E
(Brick by brick)
             E    G
I wanna rock and roll
            E
(Brick by brick)
             E    G
I wanna rock and roll


           A  G   E         A  G  E
Brick by bri____________ick  ooooooooh    (x2)


Solo 2: E G E (x4)

E|-----------------------|----------------------|-------------------|
B|-----------------------|--15b17r15--12--------|-------------------|
G|--9-9~-----------------|---------------13-12--|-------------------|
D|-------7~--------------|----------------------|-----7b9r7---------|
A|----------5b7r5b7r5b7--|----------------------|-----------5b7r5~--|
E|-----------------------|----------------------|-------------------|

               E   G
I wanna brick by brick
            E
(Brick by brick)
              E   G
I wanna blow by blow
            E
(Brick by brick)
            E G
I want an episode
            E
(Brick by brick)
               E   G
I wanna brick by brick, by brick, by...

           A  G   E          A  G  E
Brick by bri____________ick  ooooooooh    (x4)

E G (x4) E G



** Riff do refrão **


E|--------------------------------------|
B|--------10-10-------10-10-------------|
G|--12-12-------12-12-------12-9-9-9-9--|
D|--------------------------------------|  (x4)
A|--------------------------------------|
E|--------------------------------------|

E|-------------------------------------------------------------|
B|--10---------------10-------------10------12-11-10-9-8-7-6---|
G|-----12-9-9-9-9-------12-9-9-9-9-----------------------------|
D|-------------------------------------------------------------|
A|-------------------------------------------------------------|
E|-------------------------------------------------------------|
reproducciones 719
Acordes para:
    Composição: Alex Turner / Arctic Monkeys Colaboración y revision:
    • Lucas Carvalho

    0 comentarios

    mostrar más comentarios

    ¿Conseguiste tocar?

    4 tocaron 0 aún no

    ¡Graba un vídeo tocando Brick By Brick y envianoslo!

    00:00 / 00:00
    outros vídeos desta música
    repetir qualidade Automático
    Outros vídeos desta música
    00:00 / 00:00
    Automático
    OK