Cifra Club

Do I Wanna Know

Arctic Monkeys

Tab de bajo: Principal
Introdução

Parte 01 ( tocar 2x )

G|--------------------------------------------|
D|--------------------------------------------|
A|----6-3--5\---------------------------------|
E|-3-----------3------------------------------|

Primeira parte

Have you got colour in your cheeks? 

Parte 01 ( tocar 3x )

G|--------------------------------------------|
D|--------------------------------------------|
A|----6-3--5\---------------------------------|
E|-3-----------3------------------------------|

Parte 02

G|--------------------------------------------|
D|-----------5\-------------------------------|
A|----6-3--5----------------------------------|
E|-3------------------------------------------|

Pré - Refrão

Do I wanna know?If this feeling flows both...

Parte 01

G|--------------------------------------------|
D|-------------------------------------5\-----|
A|-6--3-5-6-5-3-0-3--0-3-5--------1-----------|
E|-------------------------3--1h3---3---------|

G|--------------------------------------------|
D|--------------------------------------------|
A|-6--3-5-6-5-3-0-3---------------------------|
E|------------------3--3----------------------|

Refrão

Crawling back to you...

Parte 01

G|--------------------------------------------|
D|--------------------------------------------|
A|-----1--------1--6h8-6-5-3--0-3-5-3--0-3-5--|
E|-1h3---3--1h3------------------------------3|

Parte 02

G|--------------------------------------------|
D|--------------------------------------------|
A|-----1-------1-6h8-6-5-3-----3-5-3-0-3-5----|
E|-1h3---3-1h3-------------6-6----------------|

G|--------------------------------------------|
D|--------------------------------------------|
A|--------------------------------------------|
E|-3--3---------------------------------------|

Segunda parte

So have you got the guts? 

Parte 01 ( tocar 3x )

G|--------------------------------------------|
D|--------------------------------------------|
A|----6-3--5\---------------------------------|
E|-3-----------3------------------------------|

Parte 02

G|--------------------------------------------|
D|-----------5\-------------------------------|
A|----6-3--5----------------------------------|
E|-3------------------------------------------|

Pré – Refrão 2

Do I wanna know?If this feeling flows both...

Parte 01

G|--------------------------------------------|
D|-------------------------------------5\-----|
A|-6--3-5-6-5-3-0-3--0-3-5--------1-----------|
E|-------------------------3--1h3---3---------|

G|--------------------------------------------|
D|--------------------------------------------|
A|-6--3-5-6-5-3-0-3--0-3-5--------1-----------|
E|-------------------------3--1h3---3---------|

Refrão 02

Crawling back to you...

Parte 01

G|--------------------------------------------|
D|--------------------------------------------|
A|-----1--------1--6h8-6-5-3--0-3-5-3---------|
E|-1h3---3--1h3-------------------------------|

G|--------------------------------------------|
D|--------------------------------------------|
A|-0-3-5-5------------------------------------|
E|---------3----------------------------------|

Parte 02

G|--------------------------------------------|
D|--------------------------------------------|
A|-----1-------1-6h8-6-5-3-----3-5-3-0-3-3h5--|
E|-1h3---3-1h3-------------6-6----------------|

G|--------------------------------------------|
D|--------5\----------------------------------|
A|-3h5----------------------------------------|
E|-----3--------------------------------------|

Parte 03 ( Tocar 2x )

Do I wanna know?If this feeling flows both...

G|--------------------------------------------|
D|-------------------------------------5\-----|
A|-6--3-5-6-5-3-0-3--0-3-5--------1-----------|
E|-------------------------3--1h3---3---------|

Parte 04

G|--------------------------------------------|
D|----------------------------------3---5\----|
A|-6--3-5-6-5-3-0-3--0-3-5--------1-----------|
E|-------------------------3--1h3-------------|

Parte 05 ( final )

G|--------------------------------------------|
D|--------------------------------------------|
A|-6--3-5-6-5-3-0-3----0-3-5-----0-3-5--------|
E|------------------3--------3-3-------3------|
reproducciones 2.211
Composição: Alex Turner Colaboración y revision:
  • Reginaldo Costa
  • Lucas Idalino

0 comentarios

mostrar más comentarios

¿Conseguiste tocar?

26 tocaron 0 aún no

¡Graba un vídeo tocando Do I Wanna Know y envianoslo!

00:00 / 00:00
outros vídeos desta música
repetir qualidade Automático
Outros vídeos desta música
00:00 / 00:00
Automático
Capítulos
  • Tocando a música
  • Dicas Iniciais / Equipamentos
  • Introdução
  • Primeira Parte
  • Pré-Refrão
  • Dicas Refrão
  • Refrão
  • Dicas Segunda Parte e Segundo Pré-Refrão
  • Segunda Parte
  • Segundo Pré-Refrão
  • Dicas Segundo Refrão
  • Segundo Refrão
  • Encerramento
  • Ficha Técnica / Erros de Gravação
OK