Cifra Club

Don't Sit Down 'Cause I've Moved Your Chair

Arctic Monkeys

Tablatura: Principal (guitarra)
Tom: D
Intro:
E|--------------------------------------------|
B|--------------------------------------------|
G|--------------------------------------------|
D|--------------------------------------------|
A|--5--5--7--5--5--7--5--5--7--5--8--7--6--5--|
D|--------------------------------------------|

Pré-Verso:
E|-------------------------------------|
B|-------------------------------------|
G|-------------------------------------|
D|-------------------------------------|
A|--5--5--7--5--5--7--5--5--7--5--8~~~-|
D|-------------------------------------|

Verso:
E|--------------------------------------------|
B|--------------------------------------------|
G|--------------------------------------------|
D|--------------------------------------------|
A|--5--5--7--5--5--7--5--5--7--5--8--7--6--5--|
D|--0--0--0--0--0--0--0--0--0--0--0--0--0--0--|

Pré-Refrão:
E|-------------------------------------|
B|-------------------------------------|
G|-------------------------------------|
D|-------------------------------------|
A|--5--5--7--5--5--7--5--5--7--5--8~~~-|
D|--0--0--0--0--0--0--0--0--0--0--0~~~-|

Refrão:
       F                       A#
E|--------------------------------------------------|
B|--------------------------------------------------|
G|--------------------------------------------------|
D|--/3--3--3--3--3--3--3--3/8--8--8--8--8--8--8--8--|
A|--/3--3--3--3--3--3--3--3/8--8--8--8--8--8--8--8--|
D|--/3--3--3--3--3--3--3--3/8--8--8--8--8--8--8--8--|

      D
E|--------------------------------------------------|
B|--------------------------------------------------|
G|--------------------------------------------------|
D|--0--0--0--0--0--0--0--0--0--0--0--0--0--0--0--0--|
A|-/5--5--5--5--5--5--5--5-/5--5--5--5--5--5--5--5--|
D|--0--0--0--0--0--0--0--0--0--0--0--0--0--0--0--0--|

Final do Refrão:
      A                        G
E|--------------------------------------------------|
B|--------------------------------------------------|
G|--------------------------------------------------|
D|--/3--3--3--3--3--3--3--3/8--8--8--8--8--8--8--8--|
A|--/3--3--3--3--3--3--3--3/8--8--8--8--8--8--8--8--|
D|--/3--3--3--3--3--3--3--3/8--8--8--8--8--8--8--8--|

E|-----------------------------------------------|
B|-----------------------------------------------|
G|-----------------------------------------------|
D|--0--0--0--0--0--0--0--0--0--0--0--0--0--0~~---|
A|-/5--5--5--7--5--5--5--7--5--5--5--7--5--8~~---|
D|--0--0--0--0--0--0--0--0--0--0--0--0--0--0~~---|

E|-----------------------------------------------|
B|-----------------------------------------------|
G|-----------------------------------------------|
D|-----------------------------------------------|
A|-----------------------------------------------|
D|--0--0--2--0--0--2--0--0--2--0--3--2--1--0-----|

E|-----------------------------------------------|
B|-----------------------------------------------|
G|-----------------------------------------------|
D|-----------------------------------------------|
A|-----------------------------------------------|
D|--0--0--2--0--0--2--0--0--2--0--2--3--6--------|


Break a mirror, roll the dice
Run with scissors through a chip pan fire fight
Go into business with a grizzly bear
But just don't sit down, cause I've moved your chair

Find a well known hardman and start a fight
Wear your shell suit on bonfire night

Fit a circular hole with a peg that's square
But just don't sit down, cause I've moved your chair

(ohhhh yeah yeah yeah)
(ohhhh yeah yeah yeah)

Bite the lightning and tell me how it tastes
Kung-fu fighting on your rollerskates
Do the macarena in the devil's lair
But just don't sit down, cause I've moved your chair

(ohhhh yeah yeah yeah)
(ohhhh yeah yeah yeah)
(ohhhh yeah yeah yeah)
reproducciones 2.657
Acordes para:
    Composição: Alex Turner / Arctic Monkeys Colaboración y revision:
    • Taynan Medeiros
    • Jullio Rosales

    0 comentarios

    mostrar más comentarios

    ¿Conseguiste tocar?

    12 tocaron 0 aún no

    ¡Graba un vídeo tocando Don't Sit Down 'Cause I've Moved Your Chair y envianoslo!

    00:00 / 00:00
    outros vídeos desta música
    repetir qualidade Automático
    Outros vídeos desta música
    00:00 / 00:00
    Automático
    OK