Cifra Club

Electricity

Arctic Monkeys

Tablatura: Principal (guitarra)
Tom: G
Intro / 1º Verso                          
E|-----------------------------------------|
B|-----------------------------------------|
G|-----------------------------------------|
D|-----------------------------------------| (4x)
A|----03\53----03\53----03\53----03\53-----|
E|0003-----0003-----0003-----0003----------|

E|-----------------------------------------|
B|-----------------------------------------|
G|-----------------------------------------| (2x)
D|777777-----555555-----333333-----222222--|
A|777777-----555555-----333333-----222222--|
E|555555-----333333-----111111-----000000--|

Ponte:
E|-----------------------------------------|
B|-----------------------------------------|
G|-----------------------------------------|
D|77777777--55555555--33333333--22222222---|
A|77777777--55555555--33333333--22222222---|
E|55555555--33333333--11111111--00000000---|

E|-----------------------------------------|
B|-----------------------------------------|
G|-----------------------------------------|
D|77777777--55555555--33333333--66666------|
A|77777777--55555555--33333333--66666------|
E|55555555--33333333--11111111--44444------|

2º Verso:
E|-----------------------------------------|
B|-----------------------------------------|
G|-----------------------------------------|
D|-----------------------------------------|
A|----03\53----03\53----03\53----03\53-----|
E|0003-----0003-----0003-----0003----------|

E|----------------------------------------|
B|----------------------------------------|
G|----------------------------------------| (2x)
D|----------------------------------------|
A|----------------------------------------|
E|0-00------0-00------0-00------0-00------|

E|-----------------------------------------|
B|-----------------------------------------|
G|-----------------------------------------| (2x)
D|-----------------------------------------|
A|----03\53----03\53----03\53----03\53-----|
E|0003-----0003-----0003-----0003----------|

E|-----------------------------------------|
B|-----------------------------------------|
G|-----------------------------------------| (2x)
D|777777-----555555-----333333-----222222--|
A|777777-----555555-----333333-----222222--|
E|555555-----333333-----111111-----000000--|

Solo:
E|----BU----------------------BU-----------------10(12)8-|
B|--8-10(12)BD--------------8-10(12)10-8-----------------|
G|79--------7(9)BD--------79------------97--7------------|
D|--------------10(12)7-10----------------10-10-7--------|
A|-------------------------------------------------------|
E|-------------------------------------------------------|

3º Verso / Refrão:                     
E|---------------------------------------|
B|---------------------------------------|
G|---------555555------------------------|
D|333333---555555---777777---77777--hp---|
A|333333---333333---777777---77777-5755--|
E|111111------------555555---55555-----8-|

E|--------------------------------------|
B|--------------------------------------|
G|---------555555-----------------------|
D|333333---555555-----------------------|
A|333333---333333----h----h-------------|
E|111111------------355553555555330033--|

E|---------------------------------------|
B|---------------------------------------|
G|---------555555------------------------|
D|333333---555555--------------h----h----|
A|333333---333333----h----h---0333303333-|
E|111111------------3555535555-----------|

E|----------------------------------------|
B|----------------------------------------|
G|7777777777777777-8888888888888----------|
D|7777777777777777-8888888888888----------|
A|5555555555555555-6666666666666----------|
E|----------------------------------------|

Outro 2x:
E|-----------------------------------------|
B|-----------------------------------------|
G|-----------------------------------------| 
D|-----------------------------------------|
A|----03\53----03\53----03\53----03\53-----|
E|0003-----0003-----0003-----0003----------|
reproducciones 594
Acordes para:
    Composição: Alex Turner Colaboración y revision:
    • Nathália Sobral

    0 comentarios

    mostrar más comentarios

    ¿Conseguiste tocar?

    1 tocaron 0 aún no

    ¡Graba un vídeo tocando Electricity y envianoslo!

    00:00 / 00:00
    outros vídeos desta música
    repetir qualidade Automático
    Outros vídeos desta música
    00:00 / 00:00
    Automático
    OK