Cifra Club

Evil Twin

Arctic Monkeys

Tablatura: Principal (guitarra)
Tom: G
Introdução:

Guitarras 1 e 2:

E|-----------------------------------------------|\
B|-----------------------------------------------| \
G|-----------------------------------------------|  \x4
D|-----------------------------------------------|  /
A|-----------------------------------------------| /
E|-2---2---0--2--0--5--0--2--0-2-2-0-------------|/

E|-----------------------------------------------|
B|-----------------------------------------------| 
G|-----------------------------------------------|  
D|-----------------------------------------------|
A|-----------------------------------------------|
E|-2~~~~~~~~~~~~~~~~~~~~~~~~~~~~~~~~~~~~~~~~~~~~~|

E|---x-------------------------------------------|
B|---x-------------------------------------------| 
G|---x-------------------------------------------|  
D|---x-------------------------------------------|
A|---x-------------------------------------------|
E|--/14------------------------------------------|


Verso 1:
O verso da música só fica tocando baixo e bateria.

Refrão 1:

Guitarra 1:

E|-----------------------------------------------|\
B|------5/7/10-12b13-12b14r12-10--12b~-----------| \
G|-----------------------------------------------|  \
D|-----------------------------------------------|   |
A|-----------------------------------------------|   |
E|-----------------------------------------------|   |
                                                     |x2
E|-----------------------------------------------|   |
B|-----------------------------------------------|   |
G|-----------------------------------------------|   |
D|----------(PAUSA)------------------------------|  / 
A|-----------------------------------------------| /
E|-----------------------------------------------|/ 

E|-----------------------------------------------|
B|-----------------------------------------------| 
G|-----------------------------------------------|  
D|-----------------------------------------------|
A|-----------------------------------------------|
E|-2---2(deixa soar)-----------------------------|


Guitarra 2:

E|-----------------------------------------------|\
B|-----------------------------------------------| \
G|-----------------------------------------------|  \x3
D|--12---12---12-12-12-9--9-9-9--9-9-9-----------|  /
A|--12---12---12-12-12-9--9-9-9--9-9-9-----------| /
E|--10---10---10-10-10-7--7-7-7--7-7-7-----------|/

E|-----------------------------------------------|
B|-----------------------------------------------| 
G|-----------------------------------------------| 
D|--12---12---12-12-12-9--9-9-10--10-10-10-------| 
A|--12---12---12-12-12-9--9-9-10--10-10-10-------|
E|--10---10---10-10-10-7--7-7-8---8--8--8--------|

E|-----------------------------------------------|\
B|-----------------------------------------------| \
G|-----------------------------------------------|  \x2
D|-----------------------------------------------|  /
A|-----------------------------------------------| /
E|-2---2---0--2--0--5--0--2--0-2-2-0-------------|/

E|-----------------------------------------------|
B|-----------------------------------------------| 
G|-----------------------------------------------|  
D|-----------------------------------------------|
A|-----------------------------------------------|
E|-2(deixa soar)---------------------------------|


Verso 2:

Guitarra 1:

Essa guitarra fica sem tocar no começo e só começa quando
a outra guitarra passa a tocar a frase abaixo elas se juntam.

E|-----------------------------------------------|\
B|-----------------------------------------------| \
G|-----------------------------------------------|  \x2
D|-----------------------------------------------|  /
A|-----------------------------------------------| /
E|-2---2---0--2--0--5--0--2--0-2-2-0-------------|/



Guitarra 2:

E|-----------------------------------------------|\ 
B|-----------------------------------------------| \
G|-----------------------------------------------|  \
D|----------(PAUSA)------------------------------|   |
A|-----------------------------------------------|   |
E|-----------------------------------------------|   |
                                                     |x2
E|-----------------------------------------------|   |
B|-----------------------------------------------|   |
G|-----------------------------------------------|   |
D|--12---12---12-12-12-7--7-7-9--9-9-9-----------|  /
A|--12---12---12-12-12-7--7-7-9--9-9-9-----------| /
E|--10---10---10-10-10-5--5-5-7--7-7-7-----------|/

E|-----------------------------------------------|
B|-----------------------------------------------|
G|-----------------------------------------------|
D|-----------------------------------------------|
A|-----------------------------------------------|
E|-2---2---0--2--0--5--0--2--0-2-2-0-------------|

E|-----------------------------------------------|
B|-----------------------------------------------|
G|-----------------------------------------------|
D|-------------------(PAUSA)---------------------|
A|-----------------------------------------------|
E|-----------------------------------------------|


Refrão 2:

Guitarra 1:

E|-----------------------------------------------|
B|------5/7/10-12b13-12b14r12-10--12b~-----------|
G|-----------------------------------------------|
D|-----------------------------------------------|
A|-----------------------------------------------|
E|-----------------------------------------------|
                                       
E|-----------------------------------------------|
B|-----------------------------------------------|
G|-----------------------------------------------|
D|-------------------(PAUSA)---------------------|
A|-----------------------------------------------|
E|-----------------------------------------------|

E|-----------------------------------------------|
B|------12b13--10----7\5/7--------12-------------|
G|-----------------------------------------------|
D|-----------------------------------------------|
A|-----------------------------------------------|
E|-----------------------------------------------|

E|-----------------------------------------------|
B|-----------------------------------------------|
G|-----------------------------------------------|
D|-------------------(PAUSA)---------------------|
A|-----------------------------------------------|
E|-----------------------------------------------|


Guitarra 2:

E|-----------------------------------------------|\
B|-----------------------------------------------| \
G|-----------------------------------------------|  \x3
D|--12---12---12-12-12-9--9-9-9--9-9-9-----------|  /
A|--12---12---12-12-12-9--9-9-9--9-9-9-----------| /
E|--10---10---10-10-10-7--7-7-7--7-7-7-----------|/

E|-----------------------------------------------|
B|-----------------------------------------------| 
G|-----------------------------------------------| 
D|--12---12---12-12-12-9--9-9-10--10-10-10-------| 
A|--12---12---12-12-12-9--9-9-10--10-10-10-------|
E|--10---10---10-10-10-7--7-7-8---8--8--8--------|


Ponte:

Guitarras 1 e 2:

E|-----------------------------------------------|\
B|-----------------------------------------------| \
G|-----------------------------------------------|  \x2
D|--11-11-11-11-11-11-11-11---7-7-7-14--14-14-14-|  /
A|--11-11-11-11-11-11-11-11---7-7-7-14--14-14-14-| /
E|--9--9--9--9--9--9--9--9----5-5-5-12--12-12-12-|/

E|----------------------------------------------------------------------------------------------|
B|----------------------------------------------------------------------------------------------|
G|----------------------------------------------------------------------------------------------|
D|--9-9-7----7-7-6----6-6-5----5-5-5---7-7-9---9-9-7----7-7-6----6-6-5----5-5-5---7-7-9---4--4--|
A|--9-9-7----7-7-6----6-6-5----5-5-5---7-7-9---9-9-7----7-7-6----6-6-5----5-5-5---7-7-9---4--4--|
E|--7-7-5----5-5-4----4-4-3----3-3-3---5-5-7---7-7-5----5-5-4----4-4-3----3-3-3---5-5-7---2--2--|

E|-----------------------------------------------|
B|-----------------------------------------------|
G|-----------------------------------------------|
D|------------------(PAUSA)----------------------| 
A|-----------------------------------------------|
E|-----------------------------------------------|

Durante a pausa apenas baixo e bateria tocam.


Solo:

Guitarra 1:

E|-----------------------------------------------------------------------------------------------|
B|-----------------------------------------------------------------------------------------------|
G|--4b6(x12)--4b6r4--11/14b16-14b16(x2)-14b17r14--11b13r11-21b23r21-14/17b18-17b18-17b18---------|
D|-----------------------------------------------------------------------------------------------| 
A|-----------------------------------------------------------------------------------------------|
E|-----------------------------------------------------------------------------------------------|


E|-----------------------------------------------------------------------------------------------|
B|-----------------------------------------------------------------------------------------------|
G|--17b18r17\14---------------------------------2------2------2------2/16b18---------------------|
D|-------------------2/4\2/4--7b9----4--2--4b6----4b6----4b6----4b6------------------------------|
A|-----------------------------------------------------------------------------------------------|
E|-----------------------------------------------------------------------------------------------|


Guitarra 2:

E|-----------------------------------------------|\
B|-----------------------------------------------| \
G|-----------------------------------------------|  \x4
D|--12---12---12-12-12-9--9-9-9--9-9-9-----------|  /
A|--12---12---12-12-12-9--9-9-9--9-9-9-----------| /
E|--10---10---10-10-10-7--7-7-7--7-7-7-----------|/


Refrão 3:

Guitarra 1:

E|-----------------------------------------------|\
B|-----------------------------------------------| \
G|-----------------------------------------------|  \
D|------7/9b10----9b11r9----7----9b11(deixa soar)|   |
A|--7/9------------------------------------------|   |
E|-----------------------------------------------|   |
                                                     |x2
E|-----------------------------------------------|   |
B|-----------------------------------------------|   |
G|-----------------------------------------------|   |
D|-------------------(PAUSA)---------------------|  /
A|-----------------------------------------------| /
E|-----------------------------------------------|/

E|-----------------------------------------------|
B|-----------------------------------------------| 
G|-----------------------------------------------|  
D|-------------------(PAUSA)---------------------|   
A|-----------------------------------------------|   
E|-----------------------------------------------|   
                                                     
E|-----------------------------------------------|   
B|-----------------------------------------------|   
G|-----------------------------------------------|   
D|------7/9b10----9b11r9----7----9b11(deixa soar)|
A|--7/9------------------------------------------|
E|-----------------------------------------------|

E|-----------------------------------------------|\
B|-----------------------------------------------| \
G|-----------------------------------------------|  \
D|------------7(deixa soar)----------------------|   |
A|-----------------------------------------------|   |
E|-----------------------------------------------|   |
                                                     |x2
E|-----------------------------------------------|   |
B|-----------------------------------------------|   |
G|-----------------------------------------------|   |
D|------7/9b10----9b11r9----7----9b11(deixa soar)|  /
A|--7/9------------------------------------------| /
E|-----------------------------------------------|/

E|-----------------------------------------------|
B|-----------------------------------------------| 
G|-----------------------------------------------|  
D|-------------------(PAUSA)---------------------|   
A|-----------------------------------------------|   
E|-----------------------------------------------|   
                                                     
E|-----------------------------------------------|   
B|--12b13--12b13---7\5/7----------12b13----------|   
G|-----------------------------------------------|   
D|-----------------------------------------------|
A|-----------------------------------------------|
E|-----------------------------------------------|

E|-----------------------------------------------|
B|-----------------------------------------------| 
G|-----------------------------------------------|  
D|-4---------------------------------------------|
A|-4---------------------------------------------|
E|-2(deixa soar)---------------------------------|

Guitarra 2:

E|-----------------------------------------------|\
B|-----------------------------------------------| \
G|-----------------------------------------------|  \x11
D|--12---12---12-12-12-9--9-9-9--9-9-9-----------|  /
A|--12---12---12-12-12-9--9-9-9--9-9-9-----------| /
E|--10---10---10-10-10-7--7-7-7--7-7-7-----------|/

E|-----------------------------------------------|
B|-----------------------------------------------| 
G|-----------------------------------------------| 
D|--12---12---12-12-12-9--9-9-10--10-10-10-------| 
A|--12---12---12-12-12-9--9-9-10--10-10-10-------|
E|--10---10---10-10-10-7--7-7-8---8--8--8--------|

E|-----------------------------------------------|
B|-----------------------------------------------| 
G|-----------------------------------------------|  
D|-4---------------------------------------------|
A|-4---------------------------------------------|
E|-2(deixa soar)---------------------------------|


Letra:

(introdução)

(Verso 1)
You've never met before
But still she greets you like a long lost rock and roll
She's definitely one of those
But you'll go wherever she goes

And when my body and my mind
Both start talking at the exact same time
Trying to think of ways to make her mine
But they're difficult to find

(Refrão 1)
It's not what i need
No, your love's not what i need
So don't give it to me

(Verso 2)
And she said: "oh, well i knew this will sound cold
But i really have to go
Oh, it's not that i'm not free
There's nowhere i need to be
It's just your love's not what i need
So don't give it to me"

(refrão 2)
It's not what i need
No, your love's not what i need
So don't give it to me

(Ponte)
She said: "baby, how can i believe you
How can i believe you when you can't believe your luck?"
No point sticking to the plan when it's going slow

It's more a hunger than a thirst
You'll break it out the second time
Before you know about the first
Looks well-equipped to leave you in the lurch
But you'll let her do her worst

And it's not hard to tell
It's obvious the other angels' faces fell
When she told them that she had to go
Troubled wings and overcoat for something colorful
(tha knows)

(Solo)

(Refrão 3)
It's not what i need
No, your love's not what i need
So don't give it to me
No, your love's not what i need
So don't give it to me
No, your love's not what i need
So don't give it to me
No, your love's not what i need
So don't give it to me
Your love's not what i need
reproducciones 83
Acordes para:
    Composição: Alex Turner Colaboración y revision:
    • Leopoldo Tavares

    0 comentarios

    mostrar más comentarios

    ¿Conseguiste tocar?

    0 tocaron 0 aún no

    ¡Graba un vídeo tocando Evil Twin y envianoslo!

    00:00 / 00:00
    outros vídeos desta música
    repetir qualidade Automático
    Outros vídeos desta música
    00:00 / 00:00
    Automático
    OK