Cifra Club

Fireside

Arctic Monkeys

Tablatura: Principal (guitarra)
Tom: Eb (con acordes en la forma de C) Capo en 3ª casa
Intro: Bm

Bm
I can't explain but I wanna try

There's this image of you and I
        G
And it goes dancing by
        Em                    Bm
In the morning and the night time

There's all these secrets that I can't keep

Like in my heart there's that hotel suite
               G
And you lived there so long
               Em                    Bm
It's kind of strange now you're gone


                G
I'm not sure if I should
                   Em
Show you what I've found
                 G
Has it gone for good
                       Em
Or is it coming back around?
                               G
Isn't it hard to make up your mind
               Em
When you're losing
                      Bm
And your fuse is fireside


Bm
There's all those places we used to go

And I suspect that you already know
          G
But that place on memory lane
           Em
You like still looks the same
                             Bm
But something about it's changed


                     G
I'm not sure if I should
                   Em
Show you what I've found
                 G
Has it gone for good
                       Em
Or is it coming back around?
                               G
Isn't it hard to make up your mind
               Em
When you're losing
                      Bm
And your fuse is fireside


                G          Em     G
And I thought I was yours, Forever
                   Em
Or maybe I was mistaken,
                        G
But I just can't help manage to
                      Em                      Bm
Get through the day without thinking of you lately

Solo: Bm  G  Em

E|-------|------|-------|-------|-------------------|
B|--16~--|-/18--|--17---|-------|-------------------|
G|-------|------|-------|----19-|-------------------|
D|-------|------|-------|-19----|-17-17---17b19b17--|
A|-------|------|-------|-------|-------------------|
E|-------|------|-------|-------|-------------------|

E|-------|----------------|-------------------|-------|-------------------|
B|-------|----------------|-------------------|-------|-------------------|
G|-14----|----------------|-------------------|-------|-22-21-------------|
D|----12-|-15--17--19--12-|-12---21b22b21p19--|-17-19-|-------22----------|
A|-------|----------------|-------------------|-------|-------------------|
E|-------|----------------|-------------------|-------|-------------------|

E|----------------------|-------------5--|
B|----------------------|-------6--8-----|
G|-17--15--14-----------|-5--7-----------|
D|--------------17--15--|----------------|
A|----------------------|----------------|
E|----------------------|----------------|

E|-------------5--|
B|-------6--8-----|
G|-5--7-----------| (Repete até o fim da musica)
D|----------------|
A|----------------|
E|----------------|

E|----------------|
B|----------------|
G|-5--7-----------|
D|----------------|
A|----------------|
E|----------------|



                G
I'm not sure if I should
                   Em
Show you what I've found
                 G
Has it gone for good
                       Em
Or is it coming back around?
                               G
Isn't it hard to make up your mind
               Em
When you're losing
                      G
And your fuse is fireside

Bm
reproducciones 3.962
Acordes para:
    Composição: Alex Turner Colaboración y revision:

    0 comentarios

    mostrar más comentarios

    ¿Conseguiste tocar?

    27 tocaron 3 aún no

    ¡Graba un vídeo tocando Fireside y envianoslo!

    00:00 / 00:00
    outros vídeos desta música
    repetir qualidade Automático
    Outros vídeos desta música
    00:00 / 00:00
    Automático
    OK