Cifra Club

Fireside

Arctic Monkeys

Tab de bajo: Principal
Intro

G|-------------------------|
D|-------------------------|
A|--5---3-5-------8-7-5-3--|  x3
E|-----------5--8----------|

G|--------------------------|
D|--------------------------|
A|--5---3-5--3-----8-7-5-3--|  
E|------------5--8----------|


Verse

G|-------------------------|
D|-------------------------|
A|--5---3-5-------8-7-5-3--|  x3
E|-----------5--8----------|

G|--------------------------|
D|-----------5-3------3-----|
A|--5---3-5-------3h5---5-3-|  
E|--------------------------|

G|----------------------------|
D|----------------------------|
A|--1-----1-----1-1-----1-3\--|  
E|------1-----1-------1-------|

G|---------------------------|
D|---------------------------|
A|------------------------0--|  
E|--3---1-3---1-3-3---1-3----|

G|-------------------------|
D|-------------------------|
A|--5---3-5-------8-7-5-3--|  x2
E|-----------5--8----------|

(Second time you play the verse, instead of repeating 2 times the riff above, go with this)

G|--------------------------|
D|-----------5-3------3-----|
A|--5---3-5-------3h5---5-3-|  
E|--------------------------|



Chorus x3

G|--------------------------|
D|--------------------------|
A|--1-----1-----1-1----1-3--|  
E|------1-----1------1------|

G|--------------------------|
D|--------------------------|
A|-----------------------0--|  
E|--3---1-3---1-3-3--1-3----|


Verse

G|-------------------------|
D|-------------------------|
A|--5---3-5-------8-7-5-3--|  x3
E|-----------5--8----------|

G|-------------------------|
D|-----------5-3-----3-----|
A|--5---3-5------5-----5-3-|  
E|-------------------------|

G|----------------------------|
D|----------------------------|
A|--1-----1-----1-1-----1-3\--|  
E|------1-----1-------1-------|

G|---------------------------|
D|---------------------------|
A|------------------------0--|  
E|--3---1-3---1-3-3---1-3----|

G|-------------------------|
D|-------------------------|
A|--5---3-5-------8-7-5-3--|
E|-----------5--8----------|

G|-------------------------|
D|-----------5-3-----3-----|
A|--5---3-5------5------5\-|  
E|-------------------------|


Chorus x3

G|--------------------------|
D|--------------------------|
A|--1-----1-----1-1----1-3--|  
E|------1-----1------1------|

G|--------------------------|
D|--------------------------|
A|-----------------------0--|  
E|--3---1-3---1-3-3--1-3----|
 


G|-------------------------|
D|-------------------------|
A|--5---3-5-------8-7-5-3--| 
E|-----------5--8----------|

G|-------------------------|
D|-----------5-3-----3-----|
A|--5---3-5------5------5\-|  
E|-------------------------|


Bridge

G|--------------------------|
D|--------------------------|
A|--1-----1-----1-1----1-3--|  
E|------1-----1------1------|
                                      x3
G|--------------------------|
D|--------------------------|
A|-----------------------0--|  
E|--3---1-3---1-3-3--1-3----|

(finish on)

G|----------------|
D|----------------|
A|--5-(let-ring)--|
E|----------------|


Guitar Solo

G|-------------------------|
D|-------------------------|
A|--5---5-8--8--8-5-8-5-3--|  x4
E|-------------------------|

G|----------------------------|
D|----------------------------|
A|--1-----1-----1-1-----1-3\--|  
E|------1-----1-------1-------|

G|---------------------------|
D|---------------------------|
A|------------------------0--|  
E|--3---1-3---1-3-3---1-3----|

G|-------------------------|
D|-------------------------|
A|--5---5-8--8--8-5-8-5-3--|  x2
E|-------------------------|


Last Chorus

G|--------------------------|
D|--------------------------|
A|--1-----1-----1-1----1-3--|  
E|------1-----1------1------|

G|--------------------------|
D|--5-----5-----5-5----3-5--|
A|------5-----5------5------|  
E|--------------------------|

G|--------------------------|
D|--------------------------|
A|--1-----1-----1-1----1-3--|  
E|------1-----1------1------|

G|----------------------------|
D|--5--5--5p3---5--3----5p3---|
A|-----------5-------5-----5--|  
E|----------------------------|

G|--------------------------|
D|--------------------------|
A|--1-----1-----1-1----1-3--|  
E|------1-----1------1------|

G|--------------------------|
D|--5-----5-----5-5----3-5--|
A|------5-----5------5------|  
E|--------------------------|

G|--------------------------|
D|--------------------------|
A|--1-----1-----1-1----1-3--|  
E|------1-----1------1------|

G|------------------------------|
D|--5--5--5p3---5/7--3-5--5p3---|
A|-----------5---------------5--|  
E|------------------------------|


Outro

G|-------------------------|
D|-------------------------|
A|--5---3-5-------8-7-5-3--|  x3
E|-----------5--8----------|

G|-----------------------------|
D|-----------------------------|
A|--5---3-5--3-----8-7-5-3--5--|  
E|------------5--8-------------|
reproducciones 105
Composição: Alex Turner Colaboración y revision:
  • Lucas Idalino

0 comentarios

mostrar más comentarios

¿Conseguiste tocar?

0 tocaron 0 aún no

¡Graba un vídeo tocando Fireside y envianoslo!

00:00 / 00:00
outros vídeos desta música
repetir qualidade Automático
Outros vídeos desta música
00:00 / 00:00
Automático
OK